999
"DXF R12 Output" (www.mydxf.blogspot.com)
 0 
SECTION
 2 
HEADER
 9 
$ACADVER
 1 
AC1009
 9 
$EXTMIN
 10 
 0 
 20 
 0 
 9 
$EXTMAX
 10 
 8.5 
 20 
 11 
 0 
ENDSEC
 0 
SECTION
 2 
ENTITIES
0
LINE
8
0
10
191.736000
20
193.518000
11
191.736000
21
199.918000
0
LINE
8
0
10
191.736000
20
199.918000
11
179.842000
21
199.918000
0
LINE
8
0
10
179.842000
20
199.918000
11
179.842000
21
188.185000
0
LINE
8
0
10
179.842000
20
188.185000
11
186.242000
21
188.185000
0
LINE
8
0
10
186.242000
20
188.185000
11
186.242000
21
185.145000
0
LINE
8
0
10
186.242000
20
185.145000
11
179.842000
21
185.145000
0
LINE
8
0
10
179.842000
20
185.145000
11
179.842000
21
173.252000
0
LINE
8
0
10
179.842000
20
173.252000
11
191.576000
21
173.252000
0
LINE
8
0
10
191.576000
20
173.252000
11
191.576000
21
179.652000
0
LINE
8
0
10
191.576000
20
179.652000
11
194.616000
21
179.652000
0
LINE
8
0
10
194.616000
20
179.652000
11
194.638070
21
173.252000
0
LINE
8
0
10
194.638070
20
173.252000
11
206.509000
21
173.252000
0
LINE
8
0
10
206.509000
20
173.252000
11
206.509000
21
185.145000
0
LINE
8
0
10
206.509000
20
185.145000
11
200.109000
21
185.145000
0
LINE
8
0
10
200.109000
20
185.145000
11
200.109000
21
188.185000
0
LINE
8
0
10
200.109000
20
188.185000
11
206.509000
21
188.185000
0
LINE
8
0
10
206.509000
20
188.185000
11
206.509000
21
199.918000
0
LINE
8
0
10
206.509000
20
199.918000
11
194.776000
21
199.918000
0
LINE
8
0
10
194.776000
20
199.918000
11
194.776000
21
193.518000
0
LINE
8
0
10
194.776000
20
193.518000
11
191.736000
21
193.518000
0
LINE
8
0
10
32.730300
20
195.855000
11
32.868518
21
202.254990
0
LINE
8
0
10
32.868518
20
202.254990
11
21.134818
21
202.508397
0
LINE
8
0
10
21.134818
20
202.508397
11
15.048518
21
192.473397
0
LINE
8
0
10
15.048518
20
192.473397
11
20.520688
21
189.154477
0
LINE
8
0
10
20.520688
20
189.154477
11
18.944198
21
186.555197
0
LINE
8
0
10
18.944198
20
186.555197
11
13.472028
21
189.874117
0
LINE
8
0
10
13.472028
20
189.874117
11
7.302748
21
179.702317
0
LINE
8
0
10
7.302748
20
179.702317
11
12.950138
21
169.413917
0
LINE
8
0
10
12.950138
20
169.413917
11
18.560498
21
172.493497
0
LINE
8
0
10
18.560498
20
172.493497
11
20.023298
21
169.828577
0
LINE
8
0
10
20.023298
20
169.828577
11
14.418298
21
166.739237
0
LINE
8
0
10
14.418298
20
166.739237
11
20.137328
21
156.320337
0
LINE
8
0
10
20.137328
20
156.320337
11
31.871028
21
156.066930
0
LINE
8
0
10
31.871028
20
156.066930
11
32.009246
21
162.466930
0
LINE
8
0
10
32.009246
20
162.466930
11
35.049246
21
162.401277
0
LINE
8
0
10
35.049246
20
162.401277
11
34.911028
21
156.001277
0
LINE
8
0
10
34.911028
20
156.001277
11
46.804028
21
155.744432
0
LINE
8
0
10
46.804028
20
155.744432
11
52.973308
21
165.916232
0
LINE
8
0
10
52.973308
20
165.916232
11
47.501138
21
169.235152
0
LINE
8
0
10
47.501138
20
169.235152
11
49.077628
21
171.834432
0
LINE
8
0
10
49.077628
20
171.834432
11
54.549798
21
168.515502
0
LINE
8
0
10
54.549798
20
168.515502
11
60.636108
21
178.550502
0
LINE
8
0
10
60.636108
20
178.550502
11
54.908148
21
188.985702
0
LINE
8
0
10
54.908148
20
188.985702
11
49.301368
21
185.899612
0
LINE
8
0
10
49.301368
20
185.899612
11
47.838568
21
188.564532
0
LINE
8
0
10
47.838568
20
188.564532
11
53.448928
21
191.644112
0
LINE
8
0
10
53.448928
20
191.644112
11
47.801538
21
201.932512
0
LINE
8
0
10
47.801538
20
201.932512
11
35.908538
21
202.189359
0
LINE
8
0
10
35.908538
20
202.189359
11
35.770320
21
195.789359
0
LINE
8
0
10
35.770320
20
195.789359
11
32.730300
21
195.855000
0
LINE
8
0
10
29.219300
20
37.015700
11
29.219297
21
30.615700
0
LINE
8
0
10
29.219297
20
30.615700
11
14.659297
21
30.615706
0
LINE
8
0
10
14.659297
20
30.615706
11
21.930997
21
43.210606
0
LINE
8
0
10
21.930997
20
43.210606
11
27.481847
21
40.024976
0
LINE
8
0
10
27.481847
20
40.024976
11
29.001847
21
42.657696
0
LINE
8
0
10
29.001847
20
42.657696
11
23.459287
21
45.857696
0
LINE
8
0
10
23.459287
20
45.857696
11
30.659287
21
58.328496
0
LINE
8
0
10
30.659287
20
58.328496
11
37.859277
21
45.857696
0
LINE
8
0
10
37.859277
20
45.857696
11
32.316717
21
42.657696
0
LINE
8
0
10
32.316717
20
42.657696
11
33.836717
21
40.024986
0
LINE
8
0
10
33.836717
20
40.024986
11
39.379277
21
43.224976
0
LINE
8
0
10
39.379277
20
43.224976
11
46.659267
21
30.615676
0
LINE
8
0
10
46.659267
20
30.615676
11
32.259267
21
30.615678
0
LINE
8
0
10
32.259267
20
30.615678
11
32.259300
21
37.015700
0
LINE
8
0
10
32.259300
20
37.015700
11
29.219300
21
37.015700
0
LINE
8
0
10
194.536000
20
179.572000
11
194.558070
21
173.172010
0
LINE
8
0
10
206.589000
20
173.172000
11
194.558000
21
173.172000
0
LINE
8
0
10
206.589000
20
185.065000
11
206.589000
21
173.172000
0
LINE
8
0
10
200.189000
20
185.065000
11
206.589000
21
185.065000
0
LINE
8
0
10
206.589000
20
188.105000
11
200.189000
21
188.105000
0
LINE
8
0
10
206.589000
20
199.998000
11
206.589000
21
188.105000
0
LINE
8
0
10
194.696000
20
199.998000
11
206.589000
21
199.998000
0
LINE
8
0
10
194.696000
20
193.598000
11
194.696000
21
199.998000
0
LINE
8
0
10
191.816000
20
193.598000
11
194.696000
21
193.598000
0
LINE
8
0
10
191.816000
20
199.998000
11
191.816000
21
193.598000
0
LINE
8
0
10
179.762000
20
199.998000
11
191.816000
21
199.998000
0
LINE
8
0
10
179.762000
20
188.105000
11
179.762000
21
199.998000
0
LINE
8
0
10
179.762000
20
188.105000
11
186.162000
21
188.105000
0
LINE
8
0
10
186.162000
20
188.105000
11
186.162000
21
185.225000
0
LINE
8
0
10
186.162000
20
185.225000
11
179.762000
21
185.225000
0
LINE
8
0
10
179.762000
20
173.172000
11
179.762000
21
185.225000
0
LINE
8
0
10
191.656000
20
173.172000
11
179.762000
21
173.172000
0
LINE
8
0
10
191.656000
20
173.172000
11
191.656000
21
179.572000
0
LINE
8
0
10
191.656000
20
179.572000
11
194.536000
21
179.572000
0
LINE
8
0
10
14.520800
20
30.535700
11
29.299400
21
30.535697
0
LINE
8
0
10
29.299300
20
30.535700
11
29.299300
21
36.935700
0
LINE
8
0
10
29.299300
20
36.935700
11
32.179300
21
36.935697
0
LINE
8
0
10
32.179300
20
36.935700
11
32.179297
21
30.535710
0
LINE
8
0
10
32.179300
20
30.535700
11
46.797900
21
30.535697
0
LINE
8
0
10
46.797900
20
30.535700
11
39.408600
21
43.334300
0
LINE
8
0
10
33.866000
20
40.134300
11
39.408560
21
43.334290
0
LINE
8
0
10
32.426000
20
42.628400
11
33.866000
21
40.134250
0
LINE
8
0
10
37.968600
20
45.828400
11
32.426040
21
42.628400
0
LINE
8
0
10
37.968600
20
45.828400
11
30.659300
21
58.488500
0
LINE
8
0
10
30.659300
20
58.488500
11
23.350100
21
45.828400
0
LINE
8
0
10
23.350100
20
45.828400
11
28.892660
21
42.628400
0
LINE
8
0
10
28.892600
20
42.628400
11
27.452500
21
40.134070
0
LINE
8
0
10
27.452500
20
40.134100
11
21.901700
21
43.319700
0
LINE
8
0
10
21.901700
20
43.319700
11
14.520820
21
30.535600
0
LINE
8
0
10
47.849300
20
202.011000
11
35.830200
21
202.270568
0
LINE
8
0
10
35.692000
20
195.871000
11
35.830215
21
202.270990
0
LINE
8
0
10
32.812000
20
195.933000
11
35.692040
21
195.870801
0
LINE
8
0
10
32.950200
20
202.333000
11
32.811982
21
195.933010
0
LINE
8
0
10
32.950200
20
202.333000
11
21.090300
21
202.589000
0
LINE
8
0
10
21.090300
20
202.589000
11
14.938560
21
192.446100
0
LINE
8
0
10
14.938600
20
192.446000
11
20.410770
21
189.127070
0
LINE
8
0
10
20.410800
20
189.127000
11
18.917280
21
186.664520
0
LINE
8
0
10
18.917300
20
186.665000
11
13.445100
21
189.984000
0
LINE
8
0
10
13.445100
20
189.984000
11
7.210370
21
179.704000
0
LINE
8
0
10
7.210370
20
179.704000
11
12.918480
21
169.305000
0
LINE
8
0
10
18.528800
20
172.385000
11
12.918440
21
169.305420
0
LINE
8
0
10
19.914700
20
169.860000
11
18.528820
21
172.384780
0
LINE
8
0
10
14.309700
20
166.771000
11
19.914700
21
169.860000
0
LINE
8
0
10
14.309700
20
166.771000
11
20.089380
21
156.241600
0
LINE
8
0
10
20.089400
20
156.241000
11
31.949300
21
155.984869
0
LINE
8
0
10
31.949300
20
155.985000
11
32.087515
21
162.385000
0
LINE
8
0
10
32.087500
20
162.385000
11
34.967540
21
162.322801
0
LINE
8
0
10
34.967500
20
162.323000
11
34.829282
21
155.923000
0
LINE
8
0
10
34.829300
20
155.923000
11
46.848400
21
155.663432
0
LINE
8
0
10
46.848400
20
155.663000
11
53.083120
21
165.942700
0
LINE
8
0
10
53.083100
20
165.943000
11
47.610900
21
169.262000
0
LINE
8
0
10
47.610900
20
169.262000
11
49.104420
21
171.724480
0
LINE
8
0
10
49.104500
20
171.724000
11
54.576670
21
168.405070
0
LINE
8
0
10
54.576600
20
168.405000
11
60.728350
21
178.547900
0
LINE
8
0
10
60.728400
20
178.548000
11
54.939700
21
189.094000
0
LINE
8
0
10
49.332900
20
186.008000
11
54.939690
21
189.094090
0
LINE
8
0
10
47.947100
20
188.533000
11
49.332870
21
186.008420
0
LINE
8
0
10
53.557500
20
191.612000
11
47.947140
21
188.532420
0
LINE
8
0
10
53.557500
20
191.612000
11
47.849300
21
202.011000
0
LINE
8
0
10
105.970000
20
84.082300
11
105.984252
21
90.563230
0
LINE
8
0
10
105.984252
20
90.563230
11
103.743923
21
90.173778
0
LINE
8
0
10
103.743923
20
90.173778
11
101.646762
21
89.428581
0
LINE
8
0
10
101.646762
20
89.428581
11
99.726606
21
88.359438
0
LINE
8
0
10
99.726606
20
88.359438
11
98.017289
21
86.998150
0
LINE
8
0
10
98.017289
20
86.998150
11
96.552650
21
85.376515
0
LINE
8
0
10
96.552650
20
85.376515
11
95.366523
21
83.526333
0
LINE
8
0
10
95.366523
20
83.526333
11
94.492745
21
81.479405
0
LINE
8
0
10
94.492745
20
81.479405
11
93.965152
21
79.267530
0
LINE
8
0
10
93.965152
20
79.267530
11
100.366000
21
79.267500
0
LINE
8
0
10
100.366000
20
79.267500
11
100.367129
21
76.227500
0
LINE
8
0
10
100.367129
20
76.227500
11
93.860439
21
76.225242
0
LINE
8
0
10
93.860439
20
76.225242
11
94.265619
21
73.857038
0
LINE
8
0
10
94.265619
20
73.857038
11
95.066041
21
71.652033
0
LINE
8
0
10
95.066041
20
71.652033
11
96.223340
21
69.648770
0
LINE
8
0
10
96.223340
20
69.648770
11
97.699156
21
67.885794
0
LINE
8
0
10
97.699156
20
67.885794
11
99.455126
21
66.401649
0
LINE
8
0
10
99.455126
20
66.401649
11
101.452888
21
65.234879
0
LINE
8
0
10
101.452888
20
65.234879
11
103.654080
21
64.424029
0
LINE
8
0
10
103.654080
20
64.424029
11
106.020339
21
64.007642
0
LINE
8
0
10
106.020339
20
64.007642
11
106.020000
21
70.498300
0
LINE
8
0
10
106.020000
20
70.498300
11
109.060000
21
70.498582
0
LINE
8
0
10
109.060000
20
70.498582
11
109.060564
21
64.098592
0
LINE
8
0
10
109.060564
20
64.098592
11
111.287293
21
64.619314
0
LINE
8
0
10
111.287293
20
64.619314
11
113.348364
21
65.490655
0
LINE
8
0
10
113.348364
20
65.490655
11
115.211412
21
66.678267
0
LINE
8
0
10
115.211412
20
66.678267
11
116.844073
21
68.147802
0
LINE
8
0
10
116.844073
20
68.147802
11
118.213984
21
69.864910
0
LINE
8
0
10
118.213984
20
69.864910
11
119.288779
21
71.795243
0
LINE
8
0
10
119.288779
20
71.795243
11
120.036094
21
73.904454
0
LINE
8
0
10
120.036094
20
73.904454
11
120.423564
21
76.158192
0
LINE
8
0
10
120.423564
20
76.158192
11
113.934000
21
76.158100
0
LINE
8
0
10
113.934000
20
76.158100
11
113.934000
21
79.198100
0
LINE
8
0
10
113.934000
20
79.198100
11
120.334000
21
79.198100
0
LINE
8
0
10
120.334000
20
79.198100
11
119.844089
21
81.331244
0
LINE
8
0
10
119.844089
20
81.331244
11
119.030796
21
83.316659
0
LINE
8
0
10
119.030796
20
83.316659
11
117.923586
21
85.124982
0
LINE
8
0
10
117.923586
20
85.124982
11
116.551922
21
86.726853
0
LINE
8
0
10
116.551922
20
86.726853
11
114.945268
21
88.092911
0
LINE
8
0
10
114.945268
20
88.092911
11
113.133087
21
89.193795
0
LINE
8
0
10
113.133087
20
89.193795
11
111.144843
21
90.000145
0
LINE
8
0
10
111.144843
20
90.000145
11
109.010000
21
90.482600
0
LINE
8
0
10
109.010000
20
90.482600
11
109.010564
21
84.082600
0
LINE
8
0
10
109.010564
20
84.082600
11
105.970000
21
84.082300
0
LINE
8
0
10
120.510000
20
76.238100
11
114.014000
21
76.238100
0
LINE
8
0
10
114.014000
20
76.238100
11
114.014000
21
79.118100
0
LINE
8
0
10
114.014000
20
79.118100
11
120.426000
21
79.118100
0
LINE
8
0
10
120.426000
20
79.118100
11
119.940682
21
81.290888
0
LINE
8
0
10
119.940682
20
81.290888
11
119.122256
21
83.313024
0
LINE
8
0
10
119.122256
20
83.313024
11
118.001324
21
85.154013
0
LINE
8
0
10
118.001324
20
85.154013
11
116.608486
21
86.783359
0
LINE
8
0
10
116.608486
20
86.783359
11
114.974344
21
88.170566
0
LINE
8
0
10
114.974344
20
88.170566
11
113.129498
21
89.285139
0
LINE
8
0
10
113.129498
20
89.285139
11
111.104550
21
90.096582
0
LINE
8
0
10
111.104550
20
90.096582
11
108.930100
21
90.574400
0
LINE
8
0
10
108.930100
20
90.574400
11
108.930664
21
84.162610
0
LINE
8
0
10
108.930664
20
84.162610
11
106.050854
21
84.162328
0
LINE
8
0
10
106.050854
20
84.162328
11
106.065135
21
90.650278
0
LINE
8
0
10
106.065135
20
90.650278
11
103.785410
21
90.267219
0
LINE
8
0
10
103.785410
20
90.267219
11
101.651462
21
89.518268
0
LINE
8
0
10
101.651462
20
89.518268
11
99.698365
21
88.436399
0
LINE
8
0
10
99.698365
20
88.436399
11
97.961193
21
87.054590
0
LINE
8
0
10
97.961193
20
87.054590
11
96.475020
21
85.405816
0
LINE
8
0
10
96.475020
20
85.405816
11
95.274920
21
83.523056
0
LINE
8
0
10
95.274920
20
83.523056
11
94.395967
21
81.439284
0
LINE
8
0
10
94.395967
20
81.439284
11
93.873235
21
79.187478
0
LINE
8
0
10
93.873235
20
79.187478
11
100.286000
21
79.187500
0
LINE
8
0
10
100.286000
20
79.187500
11
100.287129
21
76.307470
0
LINE
8
0
10
100.287129
20
76.307470
11
93.774099
21
76.305212
0
LINE
8
0
10
93.774099
20
76.305212
11
94.172153
21
73.897508
0
LINE
8
0
10
94.172153
20
73.897508
11
94.976039
21
71.655708
0
LINE
8
0
10
94.976039
20
71.655708
11
96.146086
21
69.619671
0
LINE
8
0
10
96.146086
20
69.619671
11
97.642625
21
67.829254
0
LINE
8
0
10
97.642625
20
67.829254
11
99.425986
21
66.324312
0
LINE
8
0
10
99.425986
20
66.324312
11
101.456499
21
65.144703
0
LINE
8
0
10
101.456499
20
65.144703
11
103.694493
21
64.330284
0
LINE
8
0
10
103.694493
20
64.330284
11
106.100299
21
63.920912
0
LINE
8
0
10
106.100299
20
63.920912
11
106.100000
21
70.418300
0
LINE
8
0
10
106.100000
20
70.418300
11
108.980010
21
70.418568
0
LINE
8
0
10
108.980010
20
70.418568
11
108.980574
21
64.006438
0
LINE
8
0
10
108.980574
20
64.006438
11
111.247176
21
64.522119
0
LINE
8
0
10
111.247176
20
64.522119
11
113.345058
21
65.398496
0
LINE
8
0
10
113.345058
20
65.398496
11
115.240669
21
66.599976
0
LINE
8
0
10
115.240669
20
66.599976
11
116.900458
21
68.090965
0
LINE
8
0
10
116.900458
20
68.090965
11
118.290875
21
69.835869
0
LINE
8
0
10
118.290875
20
69.835869
11
119.378367
21
71.799095
0
LINE
8
0
10
119.378367
20
71.799095
11
120.129384
21
73.945050
0
LINE
8
0
10
120.129384
20
73.945050
11
120.510374
21
76.238138
0
LINE
8
0
10
120.510374
20
76.238138
11
120.510000
21
76.238100
0
LINE
8
0
10
90.938200
20
196.028000
11
91.076418
21
202.427990
0
LINE
8
0
10
91.076418
20
202.427990
11
79.342718
21
202.681397
0
LINE
8
0
10
79.342718
20
202.681397
11
73.256418
21
192.646397
0
LINE
8
0
10
73.256418
20
192.646397
11
78.728588
21
189.327477
0
LINE
8
0
10
78.728588
20
189.327477
11
77.152098
21
186.728197
0
LINE
8
0
10
77.152098
20
186.728197
11
71.679928
21
190.047117
0
LINE
8
0
10
71.679928
20
190.047117
11
65.510648
21
179.875317
0
LINE
8
0
10
65.510648
20
179.875317
11
71.158038
21
169.586917
0
LINE
8
0
10
71.158038
20
169.586917
11
76.768398
21
172.666497
0
LINE
8
0
10
76.768398
20
172.666497
11
78.231198
21
170.001577
0
LINE
8
0
10
78.231198
20
170.001577
11
72.626198
21
166.912237
0
LINE
8
0
10
72.626198
20
166.912237
11
78.345228
21
156.493337
0
LINE
8
0
10
78.345228
20
156.493337
11
90.078928
21
156.239930
0
LINE
8
0
10
90.078928
20
156.239930
11
90.217146
21
162.639930
0
LINE
8
0
10
90.217146
20
162.639930
11
93.257146
21
162.574277
0
LINE
8
0
10
93.257146
20
162.574277
11
93.118928
21
156.174277
0
LINE
8
0
10
93.118928
20
156.174277
11
105.011928
21
155.917432
0
LINE
8
0
10
105.011928
20
155.917432
11
111.181208
21
166.089232
0
LINE
8
0
10
111.181208
20
166.089232
11
105.709038
21
169.408152
0
LINE
8
0
10
105.709038
20
169.408152
11
107.285528
21
172.007432
0
LINE
8
0
10
107.285528
20
172.007432
11
112.757698
21
168.688502
0
LINE
8
0
10
112.757698
20
168.688502
11
118.844008
21
178.723502
0
LINE
8
0
10
118.844008
20
178.723502
11
113.116048
21
189.158702
0
LINE
8
0
10
113.116048
20
189.158702
11
107.509268
21
186.072612
0
LINE
8
0
10
107.509268
20
186.072612
11
106.046468
21
188.737532
0
LINE
8
0
10
106.046468
20
188.737532
11
111.656828
21
191.817112
0
LINE
8
0
10
111.656828
20
191.817112
11
106.009438
21
202.105512
0
LINE
8
0
10
106.009438
20
202.105512
11
94.116438
21
202.362359
0
LINE
8
0
10
94.116438
20
202.362359
11
93.978220
21
195.962359
0
LINE
8
0
10
93.978220
20
195.962359
11
90.938200
21
196.028000
0
LINE
8
0
10
106.057000
20
202.185000
11
94.037900
21
202.444568
0
LINE
8
0
10
93.899900
20
196.044000
11
94.038115
21
202.443990
0
LINE
8
0
10
91.019900
20
196.106000
11
93.899940
21
196.043801
0
LINE
8
0
10
91.158100
20
202.506000
11
91.019882
21
196.106010
0
LINE
8
0
10
91.158100
20
202.506000
11
79.298200
21
202.762131
0
LINE
8
0
10
79.298200
20
202.762000
11
73.146460
21
192.619100
0
LINE
8
0
10
73.146500
20
192.620000
11
78.618670
21
189.301070
0
LINE
8
0
10
78.618700
20
189.301000
11
77.125180
21
186.838520
0
LINE
8
0
10
77.125200
20
186.838000
11
71.653000
21
190.157000
0
LINE
8
0
10
71.653000
20
190.157000
11
65.418300
21
179.877000
0
LINE
8
0
10
65.418300
20
179.877000
11
71.126410
21
169.478000
0
LINE
8
0
10
76.736700
20
172.558000
11
71.126340
21
169.478420
0
LINE
8
0
10
78.122600
20
170.033000
11
76.736720
21
172.557780
0
LINE
8
0
10
72.517600
20
166.944000
11
78.122600
21
170.033000
0
LINE
8
0
10
72.517600
20
166.944000
11
78.297280
21
156.414600
0
LINE
8
0
10
78.297300
20
156.414000
11
90.157200
21
156.157869
0
LINE
8
0
10
90.157200
20
156.158000
11
90.295415
21
162.558000
0
LINE
8
0
10
90.295400
20
162.558000
11
93.175440
21
162.495801
0
LINE
8
0
10
93.175400
20
162.496000
11
93.037182
21
156.096000
0
LINE
8
0
10
93.037200
20
156.096000
11
105.056300
21
155.836432
0
LINE
8
0
10
105.056000
20
155.837000
11
111.290720
21
166.116700
0
LINE
8
0
10
111.291000
20
166.116000
11
105.819000
21
169.435000
0
LINE
8
0
10
105.819000
20
169.435000
11
107.312520
21
171.897480
0
LINE
8
0
10
107.312000
20
171.898000
11
112.784170
21
168.579070
0
LINE
8
0
10
112.785000
20
168.579000
11
118.936750
21
178.721900
0
LINE
8
0
10
118.936000
20
178.722000
11
113.148000
21
189.267000
0
LINE
8
0
10
107.541000
20
186.181000
11
113.147790
21
189.267090
0
LINE
8
0
10
106.155000
20
188.706000
11
107.540770
21
186.181420
0
LINE
8
0
10
111.765000
20
191.786000
11
106.154640
21
188.706420
0
LINE
8
0
10
111.765000
20
191.786000
11
106.057000
21
202.185000
0
LINE
8
0
10
149.145000
20
195.646000
11
149.283218
21
202.045990
0
LINE
8
0
10
149.283218
20
202.045990
11
137.549518
21
202.299397
0
LINE
8
0
10
137.549518
20
202.299397
11
131.463218
21
192.264397
0
LINE
8
0
10
131.463218
20
192.264397
11
136.935388
21
188.945477
0
LINE
8
0
10
136.935388
20
188.945477
11
135.358898
21
186.346197
0
LINE
8
0
10
135.358898
20
186.346197
11
129.886728
21
189.665117
0
LINE
8
0
10
129.886728
20
189.665117
11
123.717448
21
179.493317
0
LINE
8
0
10
123.717448
20
179.493317
11
129.364838
21
169.204917
0
LINE
8
0
10
129.364838
20
169.204917
11
134.975198
21
172.284497
0
LINE
8
0
10
134.975198
20
172.284497
11
136.437998
21
169.619577
0
LINE
8
0
10
136.437998
20
169.619577
11
130.832998
21
166.530237
0
LINE
8
0
10
130.832998
20
166.530237
11
136.552028
21
156.111337
0
LINE
8
0
10
136.552028
20
156.111337
11
148.285728
21
155.857930
0
LINE
8
0
10
148.285728
20
155.857930
11
148.423946
21
162.257930
0
LINE
8
0
10
148.423946
20
162.257930
11
151.463946
21
162.192277
0
LINE
8
0
10
151.463946
20
162.192277
11
151.325728
21
155.792277
0
LINE
8
0
10
151.325728
20
155.792277
11
163.218728
21
155.535432
0
LINE
8
0
10
163.218728
20
155.535432
11
169.388008
21
165.707232
0
LINE
8
0
10
169.388008
20
165.707232
11
163.915838
21
169.026152
0
LINE
8
0
10
163.915838
20
169.026152
11
165.492328
21
171.625432
0
LINE
8
0
10
165.492328
20
171.625432
11
170.964498
21
168.306502
0
LINE
8
0
10
170.964498
20
168.306502
11
177.050808
21
178.341502
0
LINE
8
0
10
177.050808
20
178.341502
11
171.322848
21
188.776702
0
LINE
8
0
10
171.322848
20
188.776702
11
165.716068
21
185.690612
0
LINE
8
0
10
165.716068
20
185.690612
11
164.253268
21
188.355532
0
LINE
8
0
10
164.253268
20
188.355532
11
169.863628
21
191.435112
0
LINE
8
0
10
169.863628
20
191.435112
11
164.216238
21
201.723512
0
LINE
8
0
10
164.216238
20
201.723512
11
152.323238
21
201.980359
0
LINE
8
0
10
152.323238
20
201.980359
11
152.185020
21
195.580359
0
LINE
8
0
10
152.185020
20
195.580359
11
149.145000
21
195.646000
0
LINE
8
0
10
164.264000
20
201.803000
11
152.244900
21
202.062568
0
LINE
8
0
10
152.107000
20
195.662000
11
152.245215
21
202.061990
0
LINE
8
0
10
149.227000
20
195.725000
11
152.107040
21
195.662801
0
LINE
8
0
10
149.365000
20
202.125000
11
149.226782
21
195.725010
0
LINE
8
0
10
149.365000
20
202.125000
11
137.505100
21
202.381131
0
LINE
8
0
10
137.505000
20
202.381000
11
131.353260
21
192.238100
0
LINE
8
0
10
131.354000
20
192.238000
11
136.826170
21
188.919070
0
LINE
8
0
10
136.826000
20
188.919000
11
135.332480
21
186.456520
0
LINE
8
0
10
135.332000
20
186.456000
11
129.860000
21
189.775000
0
LINE
8
0
10
129.860000
20
189.775000
11
123.625000
21
179.496000
0
LINE
8
0
10
123.625000
20
179.496000
11
129.333110
21
169.097000
0
LINE
8
0
10
134.944000
20
172.176000
11
129.333640
21
169.096420
0
LINE
8
0
10
136.330000
20
169.652000
11
134.944120
21
172.176780
0
LINE
8
0
10
130.725000
20
166.562000
11
136.330000
21
169.651340
0
LINE
8
0
10
130.725000
20
166.562000
11
136.504680
21
156.032600
0
LINE
8
0
10
136.504000
20
156.033000
11
148.363900
21
155.776869
0
LINE
8
0
10
148.364000
20
155.777000
11
148.502215
21
162.177000
0
LINE
8
0
10
148.503000
20
162.177000
11
151.383040
21
162.114801
0
LINE
8
0
10
151.383000
20
162.114000
11
151.244782
21
155.714000
0
LINE
8
0
10
151.244000
20
155.714000
11
163.263100
21
155.454432
0
LINE
8
0
10
163.263000
20
155.455000
11
169.497720
21
165.734700
0
LINE
8
0
10
169.498000
20
165.735000
11
164.026000
21
169.053000
0
LINE
8
0
10
164.026000
20
169.053000
11
165.519520
21
171.515480
0
LINE
8
0
10
165.520000
20
171.516000
11
170.992170
21
168.197070
0
LINE
8
0
10
164.813000
20
158.164000
11
170.964750
21
168.306900
0
LINE
8
0
10
177.143000
20
178.340000
11
171.355000
21
188.886000
0
LINE
8
0
10
165.748000
20
185.800000
11
171.354790
21
188.886090
0
LINE
8
0
10
164.362000
20
188.324000
11
165.747770
21
185.799420
0
LINE
8
0
10
169.973000
20
191.404000
11
164.362640
21
188.324420
0
LINE
8
0
10
169.973000
20
191.404000
11
164.264000
21
201.803000
0
LINE
8
0
10
31.585900
20
146.218000
11
31.724118
21
152.617990
0
LINE
8
0
10
31.724118
20
152.617990
11
19.990418
21
152.871397
0
LINE
8
0
10
19.990418
20
152.871397
11
13.904118
21
142.836397
0
LINE
8
0
10
13.904118
20
142.836397
11
19.376288
21
139.517477
0
LINE
8
0
10
19.376288
20
139.517477
11
17.799798
21
136.918197
0
LINE
8
0
10
17.799798
20
136.918197
11
12.327628
21
140.237117
0
LINE
8
0
10
12.327628
20
140.237117
11
6.158348
21
130.065317
0
LINE
8
0
10
6.158348
20
130.065317
11
11.805738
21
119.776917
0
LINE
8
0
10
11.805738
20
119.776917
11
17.416098
21
122.856497
0
LINE
8
0
10
17.416098
20
122.856497
11
18.878898
21
120.191577
0
LINE
8
0
10
18.878898
20
120.191577
11
13.273898
21
117.102237
0
LINE
8
0
10
13.273898
20
117.102237
11
18.992928
21
106.683337
0
LINE
8
0
10
18.992928
20
106.683337
11
30.726628
21
106.429930
0
LINE
8
0
10
30.726628
20
106.429930
11
30.864846
21
112.829930
0
LINE
8
0
10
30.864846
20
112.829930
11
33.904846
21
112.764277
0
LINE
8
0
10
33.904846
20
112.764277
11
33.766628
21
106.364277
0
LINE
8
0
10
33.766628
20
106.364277
11
45.659628
21
106.107432
0
LINE
8
0
10
45.659628
20
106.107432
11
51.828908
21
116.279232
0
LINE
8
0
10
51.828908
20
116.279232
11
46.356738
21
119.598152
0
LINE
8
0
10
46.356738
20
119.598152
11
47.933228
21
122.197432
0
LINE
8
0
10
47.933228
20
122.197432
11
53.405398
21
118.878502
0
LINE
8
0
10
53.405398
20
118.878502
11
59.491708
21
128.913502
0
LINE
8
0
10
59.491708
20
128.913502
11
53.763748
21
139.348702
0
LINE
8
0
10
53.763748
20
139.348702
11
48.156968
21
136.262612
0
LINE
8
0
10
48.156968
20
136.262612
11
46.694168
21
138.927532
0
LINE
8
0
10
46.694168
20
138.927532
11
52.304528
21
142.007112
0
LINE
8
0
10
52.304528
20
142.007112
11
46.657138
21
152.295512
0
LINE
8
0
10
46.657138
20
152.295512
11
34.764138
21
152.552359
0
LINE
8
0
10
34.764138
20
152.552359
11
34.625920
21
146.152359
0
LINE
8
0
10
34.625920
20
146.152359
11
31.585900
21
146.218000
0
LINE
8
0
10
46.705000
20
152.374000
11
34.685900
21
152.634000
0
LINE
8
0
10
34.547700
20
146.234000
11
34.685915
21
152.633990
0
LINE
8
0
10
31.667600
20
146.296000
11
34.547640
21
146.233801
0
LINE
8
0
10
31.805900
20
152.696000
11
31.667682
21
146.296010
0
LINE
8
0
10
31.805900
20
152.696000
11
19.946000
21
152.952000
0
LINE
8
0
10
19.946000
20
152.952000
11
13.794260
21
142.809100
0
LINE
8
0
10
13.794300
20
142.809000
11
19.266470
21
139.490070
0
LINE
8
0
10
19.266400
20
139.491000
11
17.772880
21
137.028520
0
LINE
8
0
10
17.772900
20
137.028000
11
12.300700
21
140.347000
0
LINE
8
0
10
12.300700
20
140.347000
11
6.065980
21
130.067300
0
LINE
8
0
10
6.066030
20
130.067000
11
11.774140
21
119.668000
0
LINE
8
0
10
17.384500
20
122.748000
11
11.774140
21
119.668420
0
LINE
8
0
10
18.770400
20
120.223000
11
17.384520
21
122.747780
0
LINE
8
0
10
13.165400
20
117.134000
11
18.770400
21
120.223340
0
LINE
8
0
10
13.165400
20
117.134000
11
18.945080
21
106.604600
0
LINE
8
0
10
18.945100
20
106.604000
11
30.805000
21
106.347869
0
LINE
8
0
10
30.804900
20
106.348000
11
30.943115
21
112.748000
0
LINE
8
0
10
30.943100
20
112.748000
11
33.823140
21
112.685801
0
LINE
8
0
10
33.823200
20
112.686000
11
33.684982
21
106.286000
0
LINE
8
0
10
33.684900
20
106.286000
11
45.704000
21
106.026432
0
LINE
8
0
10
45.704100
20
106.026000
11
51.938800
21
116.306000
0
LINE
8
0
10
51.938800
20
116.306000
11
46.466600
21
119.625000
0
LINE
8
0
10
46.466600
20
119.625000
11
47.960120
21
122.087480
0
LINE
8
0
10
47.960100
20
122.088000
11
53.432270
21
118.769070
0
LINE
8
0
10
53.432300
20
118.769000
11
59.584050
21
128.911900
0
LINE
8
0
10
59.584000
20
128.912000
11
53.795300
21
139.457000
0
LINE
8
0
10
48.188500
20
136.371000
11
53.795290
21
139.457090
0
LINE
8
0
10
46.802800
20
138.896000
11
48.188570
21
136.371420
0
LINE
8
0
10
52.413100
20
141.975000
11
46.802740
21
138.895420
0
LINE
8
0
10
52.413100
20
141.975000
11
46.705000
21
152.374000
0
LINE
8
0
10
90.747300
20
143.928000
11
90.885518
21
150.327990
0
LINE
8
0
10
90.885518
20
150.327990
11
79.151818
21
150.581397
0
LINE
8
0
10
79.151818
20
150.581397
11
73.065518
21
140.546397
0
LINE
8
0
10
73.065518
20
140.546397
11
78.537688
21
137.227477
0
LINE
8
0
10
78.537688
20
137.227477
11
76.961198
21
134.628197
0
LINE
8
0
10
76.961198
20
134.628197
11
71.489028
21
137.947117
0
LINE
8
0
10
71.489028
20
137.947117
11
65.319748
21
127.775317
0
LINE
8
0
10
65.319748
20
127.775317
11
70.967138
21
117.486917
0
LINE
8
0
10
70.967138
20
117.486917
11
76.577498
21
120.566497
0
LINE
8
0
10
76.577498
20
120.566497
11
78.040298
21
117.901577
0
LINE
8
0
10
78.040298
20
117.901577
11
72.435298
21
114.812237
0
LINE
8
0
10
72.435298
20
114.812237
11
78.154328
21
104.393337
0
LINE
8
0
10
78.154328
20
104.393337
11
89.888028
21
104.139930
0
LINE
8
0
10
89.888028
20
104.139930
11
90.026246
21
110.539930
0
LINE
8
0
10
90.026246
20
110.539930
11
93.066246
21
110.474277
0
LINE
8
0
10
93.066246
20
110.474277
11
92.928028
21
104.074277
0
LINE
8
0
10
92.928028
20
104.074277
11
104.821028
21
103.817432
0
LINE
8
0
10
104.821028
20
103.817432
11
110.990308
21
113.989232
0
LINE
8
0
10
110.990308
20
113.989232
11
105.518138
21
117.308152
0
LINE
8
0
10
105.518138
20
117.308152
11
107.094628
21
119.907432
0
LINE
8
0
10
107.094628
20
119.907432
11
112.566798
21
116.588502
0
LINE
8
0
10
112.566798
20
116.588502
11
118.653108
21
126.623502
0
LINE
8
0
10
118.653108
20
126.623502
11
112.925148
21
137.058702
0
LINE
8
0
10
112.925148
20
137.058702
11
107.318368
21
133.972612
0
LINE
8
0
10
107.318368
20
133.972612
11
105.855568
21
136.637532
0
LINE
8
0
10
105.855568
20
136.637532
11
111.465928
21
139.717112
0
LINE
8
0
10
111.465928
20
139.717112
11
105.818538
21
150.005512
0
LINE
8
0
10
105.818538
20
150.005512
11
93.925538
21
150.262359
0
LINE
8
0
10
93.925538
20
150.262359
11
93.787320
21
143.862359
0
LINE
8
0
10
93.787320
20
143.862359
11
90.747300
21
143.928000
0
LINE
8
0
10
105.866000
20
150.084000
11
93.846900
21
150.343568
0
LINE
8
0
10
93.709100
20
143.944000
11
93.847315
21
150.343990
0
LINE
8
0
10
90.829000
20
144.006000
11
93.709040
21
143.943801
0
LINE
8
0
10
90.967300
20
150.406000
11
90.829082
21
144.006010
0
LINE
8
0
10
90.967300
20
150.406000
11
79.107400
21
150.662131
0
LINE
8
0
10
79.107400
20
150.662000
11
72.955660
21
140.519100
0
LINE
8
0
10
72.955700
20
140.519000
11
78.427870
21
137.200070
0
LINE
8
0
10
78.427800
20
137.200000
11
76.934280
21
134.737520
0
LINE
8
0
10
76.934300
20
134.738000
11
71.462100
21
138.057000
0
LINE
8
0
10
71.462100
20
138.057000
11
65.227400
21
127.777000
0
LINE
8
0
10
65.227400
20
127.777000
11
70.935510
21
117.378000
0
LINE
8
0
10
76.545900
20
120.458000
11
70.935540
21
117.378420
0
LINE
8
0
10
77.931800
20
117.933000
11
76.545920
21
120.457780
0
LINE
8
0
10
72.326800
20
114.844000
11
77.931800
21
117.933340
0
LINE
8
0
10
72.326800
20
114.844000
11
78.106480
21
104.314600
0
LINE
8
0
10
78.106500
20
104.314000
11
89.966400
21
104.057869
0
LINE
8
0
10
89.966300
20
104.058000
11
90.104515
21
110.458000
0
LINE
8
0
10
90.104500
20
110.458000
11
92.984540
21
110.395801
0
LINE
8
0
10
92.984600
20
110.396000
11
92.846382
21
103.996000
0
LINE
8
0
10
92.846300
20
103.996000
11
104.865400
21
103.736432
0
LINE
8
0
10
104.865000
20
103.736000
11
111.099720
21
114.015700
0
LINE
8
0
10
111.100000
20
114.016000
11
105.628000
21
117.335000
0
LINE
8
0
10
105.628000
20
117.335000
11
107.121520
21
119.797480
0
LINE
8
0
10
107.122000
20
119.797000
11
112.594170
21
116.478070
0
LINE
8
0
10
112.594000
20
116.479000
11
118.745750
21
126.621900
0
LINE
8
0
10
118.745000
20
126.621000
11
112.957000
21
137.167000
0
LINE
8
0
10
107.350000
20
134.081000
11
112.956790
21
137.167090
0
LINE
8
0
10
105.964000
20
136.606000
11
107.349770
21
134.081420
0
LINE
8
0
10
111.575000
20
139.685000
11
105.964640
21
136.605420
0
LINE
8
0
10
111.575000
20
139.685000
11
105.866000
21
150.084000
0
LINE
8
0
10
192.719000
20
153.980000
11
192.719000
21
160.380000
0
LINE
8
0
10
192.719000
20
160.380000
11
180.825000
21
160.380000
0
LINE
8
0
10
180.825000
20
160.380000
11
180.825000
21
148.647000
0
LINE
8
0
10
180.825000
20
148.647000
11
187.225000
21
148.647000
0
LINE
8
0
10
187.225000
20
148.647000
11
187.225000
21
145.607000
0
LINE
8
0
10
187.225000
20
145.607000
11
180.825000
21
145.607000
0
LINE
8
0
10
180.825000
20
145.607000
11
180.825000
21
133.714000
0
LINE
8
0
10
180.825000
20
133.714000
11
192.559000
21
133.714000
0
LINE
8
0
10
192.559000
20
133.714000
11
192.559000
21
140.114000
0
LINE
8
0
10
192.559000
20
140.114000
11
195.599000
21
140.114000
0
LINE
8
0
10
195.599000
20
140.114000
11
195.621070
21
133.714000
0
LINE
8
0
10
195.621070
20
133.714000
11
207.492000
21
133.714000
0
LINE
8
0
10
207.492000
20
133.714000
11
207.492000
21
145.607000
0
LINE
8
0
10
207.492000
20
145.607000
11
201.092000
21
145.607000
0
LINE
8
0
10
201.092000
20
145.607000
11
201.092000
21
148.647000
0
LINE
8
0
10
201.092000
20
148.647000
11
207.492000
21
148.647000
0
LINE
8
0
10
207.492000
20
148.647000
11
207.492000
21
160.380000
0
LINE
8
0
10
207.492000
20
160.380000
11
195.759000
21
160.380000
0
LINE
8
0
10
195.759000
20
160.380000
11
195.759000
21
153.980000
0
LINE
8
0
10
195.759000
20
153.980000
11
192.719000
21
153.980000
0
LINE
8
0
10
195.519000
20
140.034000
11
195.541070
21
133.634010
0
LINE
8
0
10
207.572000
20
133.634000
11
195.541000
21
133.634000
0
LINE
8
0
10
207.572000
20
145.527000
11
207.572000
21
133.634000
0
LINE
8
0
10
201.172000
20
145.527000
11
207.572000
21
145.527000
0
LINE
8
0
10
207.572000
20
148.567000
11
201.172000
21
148.567000
0
LINE
8
0
10
207.572000
20
160.460000
11
207.572000
21
148.567000
0
LINE
8
0
10
195.679000
20
160.460000
11
207.572000
21
160.460000
0
LINE
8
0
10
195.679000
20
154.060000
11
195.679000
21
160.460000
0
LINE
8
0
10
192.799000
20
154.060000
11
195.679000
21
154.060000
0
LINE
8
0
10
192.799000
20
160.460000
11
192.799000
21
154.060000
0
LINE
8
0
10
180.745000
20
160.460000
11
192.799000
21
160.460000
0
LINE
8
0
10
180.745000
20
148.567000
11
180.745000
21
160.460000
0
LINE
8
0
10
180.745000
20
148.567000
11
187.145000
21
148.567000
0
LINE
8
0
10
187.145000
20
148.567000
11
187.145000
21
145.687000
0
LINE
8
0
10
187.145000
20
145.687000
11
180.745000
21
145.687000
0
LINE
8
0
10
180.745000
20
133.634000
11
180.745000
21
145.687000
0
LINE
8
0
10
192.639000
20
133.634000
11
180.745000
21
133.634000
0
LINE
8
0
10
192.639000
20
133.634000
11
192.639000
21
140.034000
0
LINE
8
0
10
192.639000
20
140.034000
11
195.519000
21
140.034000
0
LINE
8
0
10
153.143000
20
139.095000
11
153.143000
21
145.495000
0
LINE
8
0
10
153.143000
20
145.495000
11
141.250000
21
145.495000
0
LINE
8
0
10
141.250000
20
145.495000
11
141.250000
21
133.761000
0
LINE
8
0
10
141.250000
20
133.761000
11
147.650000
21
133.761000
0
LINE
8
0
10
147.650000
20
133.761000
11
147.650000
21
130.721000
0
LINE
8
0
10
147.650000
20
130.721000
11
141.250000
21
130.721000
0
LINE
8
0
10
141.250000
20
130.721000
11
141.250000
21
118.828000
0
LINE
8
0
10
141.250000
20
118.828000
11
152.983000
21
118.828000
0
LINE
8
0
10
152.983000
20
118.828000
11
152.983000
21
125.228000
0
LINE
8
0
10
152.983000
20
125.228000
11
156.023000
21
125.228000
0
LINE
8
0
10
156.023000
20
125.228000
11
156.045070
21
118.828000
0
LINE
8
0
10
156.045070
20
118.828000
11
167.916000
21
118.828000
0
LINE
8
0
10
167.916000
20
118.828000
11
167.916000
21
130.721000
0
LINE
8
0
10
167.916000
20
130.721000
11
161.516000
21
130.721000
0
LINE
8
0
10
161.516000
20
130.721000
11
161.516000
21
133.761000
0
LINE
8
0
10
161.516000
20
133.761000
11
167.916000
21
133.761000
0
LINE
8
0
10
167.916000
20
133.761000
11
167.916000
21
145.495000
0
LINE
8
0
10
167.916000
20
145.495000
11
156.183000
21
145.495000
0
LINE
8
0
10
156.183000
20
145.495000
11
156.183000
21
139.095000
0
LINE
8
0
10
156.183000
20
139.095000
11
153.143000
21
139.095000
0
LINE
8
0
10
155.943000
20
125.148000
11
155.965070
21
118.748010
0
LINE
8
0
10
167.996000
20
118.748000
11
155.965000
21
118.748000
0
LINE
8
0
10
167.996000
20
130.641000
11
167.996000
21
118.748000
0
LINE
8
0
10
161.596000
20
130.641000
11
167.996000
21
130.641000
0
LINE
8
0
10
167.996000
20
133.681000
11
161.596000
21
133.681000
0
LINE
8
0
10
167.996000
20
145.575000
11
167.996000
21
133.681000
0
LINE
8
0
10
156.103000
20
145.575000
11
167.996000
21
145.575000
0
LINE
8
0
10
156.103000
20
139.175000
11
156.103000
21
145.575000
0
LINE
8
0
10
153.223000
20
139.175000
11
156.103000
21
139.175000
0
LINE
8
0
10
153.223000
20
145.575000
11
153.223000
21
139.175000
0
LINE
8
0
10
141.170000
20
145.575000
11
153.223000
21
145.575000
0
LINE
8
0
10
141.170000
20
133.681000
11
141.170000
21
145.575000
0
LINE
8
0
10
141.170000
20
133.681000
11
147.570000
21
133.681000
0
LINE
8
0
10
147.570000
20
133.681000
11
147.570000
21
130.801000
0
LINE
8
0
10
147.570000
20
130.801000
11
141.170000
21
130.801000
0
LINE
8
0
10
141.170000
20
118.748000
11
141.170000
21
130.801000
0
LINE
8
0
10
153.063000
20
118.748000
11
141.170000
21
118.748000
0
LINE
8
0
10
153.063000
20
118.748000
11
153.063000
21
125.148000
0
LINE
8
0
10
153.063000
20
125.148000
11
155.943000
21
125.148000
0
LINE
8
0
10
193.100000
20
117.338000
11
193.100000
21
123.738000
0
LINE
8
0
10
193.100000
20
123.738000
11
181.207000
21
123.738000
0
LINE
8
0
10
181.207000
20
123.738000
11
181.207000
21
112.005000
0
LINE
8
0
10
181.207000
20
112.005000
11
187.607000
21
112.005000
0
LINE
8
0
10
187.607000
20
112.005000
11
187.607000
21
108.965000
0
LINE
8
0
10
187.607000
20
108.965000
11
181.207000
21
108.965000
0
LINE
8
0
10
181.207000
20
108.965000
11
181.207000
21
97.071800
0
LINE
8
0
10
181.207000
20
97.071800
11
192.940000
21
97.071800
0
LINE
8
0
10
192.940000
20
97.071800
11
192.940000
21
103.472000
0
LINE
8
0
10
192.940000
20
103.472000
11
195.980000
21
103.472000
0
LINE
8
0
10
195.980000
20
103.472000
11
196.002070
21
97.072000
0
LINE
8
0
10
196.002070
20
97.072000
11
207.874000
21
97.071800
0
LINE
8
0
10
207.874000
20
97.071800
11
207.874000
21
108.965000
0
LINE
8
0
10
207.874000
20
108.965000
11
201.474000
21
108.965000
0
LINE
8
0
10
201.474000
20
108.965000
11
201.474000
21
112.005000
0
LINE
8
0
10
201.474000
20
112.005000
11
207.874000
21
112.005000
0
LINE
8
0
10
207.874000
20
112.005000
11
207.874000
21
123.738000
0
LINE
8
0
10
207.874000
20
123.738000
11
196.140000
21
123.738000
0
LINE
8
0
10
196.140000
20
123.738000
11
196.140000
21
117.338000
0
LINE
8
0
10
196.140000
20
117.338000
11
193.100000
21
117.338000
0
LINE
8
0
10
195.901000
20
103.392000
11
195.923070
21
96.992010
0
LINE
8
0
10
207.954000
20
96.991800
11
195.923000
21
96.991800
0
LINE
8
0
10
207.954000
20
108.885000
11
207.954000
21
96.991800
0
LINE
8
0
10
201.554000
20
108.885000
11
207.954000
21
108.885000
0
LINE
8
0
10
207.954000
20
111.925000
11
201.554000
21
111.925000
0
LINE
8
0
10
207.954000
20
123.818000
11
207.954000
21
111.925000
0
LINE
8
0
10
196.060000
20
123.818000
11
207.954000
21
123.818000
0
LINE
8
0
10
196.060000
20
117.418000
11
196.060000
21
123.818000
0
LINE
8
0
10
193.180000
20
117.418000
11
196.060000
21
117.418000
0
LINE
8
0
10
193.180000
20
123.818000
11
193.180000
21
117.418000
0
LINE
8
0
10
181.127000
20
123.818000
11
193.180000
21
123.818000
0
LINE
8
0
10
181.127000
20
111.925000
11
181.127000
21
123.818000
0
LINE
8
0
10
181.127000
20
111.925000
11
187.527000
21
111.925000
0
LINE
8
0
10
187.527000
20
111.925000
11
187.527000
21
109.045000
0
LINE
8
0
10
187.527000
20
109.045000
11
181.127000
21
109.045000
0
LINE
8
0
10
181.127000
20
96.991800
11
181.127000
21
109.045000
0
LINE
8
0
10
193.020000
20
96.991800
11
181.127000
21
96.991800
0
LINE
8
0
10
193.020000
20
96.991800
11
193.020000
21
103.392000
0
LINE
8
0
10
193.020000
20
103.392000
11
195.901000
21
103.392000
0
LINE
8
0
10
192.337000
20
80.696500
11
192.337000
21
87.096500
0
LINE
8
0
10
192.337000
20
87.096500
11
180.444000
21
87.096500
0
LINE
8
0
10
180.444000
20
87.096500
11
180.444000
21
75.363200
0
LINE
8
0
10
180.444000
20
75.363200
11
186.844000
21
75.363200
0
LINE
8
0
10
186.844000
20
75.363200
11
186.844000
21
72.323200
0
LINE
8
0
10
186.844000
20
72.323200
11
180.444000
21
72.323200
0
LINE
8
0
10
180.444000
20
72.323200
11
180.444000
21
60.429900
0
LINE
8
0
10
180.444000
20
60.429900
11
192.177000
21
60.429900
0
LINE
8
0
10
192.177000
20
60.429900
11
192.177000
21
66.829900
0
LINE
8
0
10
192.177000
20
66.829900
11
195.217000
21
66.829900
0
LINE
8
0
10
195.217000
20
66.829900
11
195.239070
21
60.429900
0
LINE
8
0
10
195.239070
20
60.429900
11
207.110000
21
60.429900
0
LINE
8
0
10
207.110000
20
60.429900
11
207.110000
21
72.323200
0
LINE
8
0
10
207.110000
20
72.323200
11
200.710000
21
72.323200
0
LINE
8
0
10
200.710000
20
72.323200
11
200.710000
21
75.363200
0
LINE
8
0
10
200.710000
20
75.363200
11
207.110000
21
75.363200
0
LINE
8
0
10
207.110000
20
75.363200
11
207.110000
21
87.096500
0
LINE
8
0
10
207.110000
20
87.096500
11
195.377000
21
87.096500
0
LINE
8
0
10
195.377000
20
87.096500
11
195.377000
21
80.696500
0
LINE
8
0
10
195.377000
20
80.696500
11
192.337000
21
80.696500
0
LINE
8
0
10
195.137000
20
66.749900
11
195.159070
21
60.349910
0
LINE
8
0
10
207.190000
20
60.349900
11
195.159000
21
60.349900
0
LINE
8
0
10
207.190000
20
72.243200
11
207.190000
21
60.349900
0
LINE
8
0
10
200.790000
20
72.243200
11
207.190000
21
72.243200
0
LINE
8
0
10
207.190000
20
75.283200
11
200.790000
21
75.283200
0
LINE
8
0
10
207.190000
20
87.176500
11
207.190000
21
75.283200
0
LINE
8
0
10
195.297000
20
87.176500
11
207.190000
21
87.176500
0
LINE
8
0
10
195.297000
20
80.776500
11
195.297000
21
87.176500
0
LINE
8
0
10
192.417000
20
80.776500
11
195.297000
21
80.776500
0
LINE
8
0
10
192.417000
20
87.176500
11
192.417000
21
80.776500
0
LINE
8
0
10
180.364000
20
87.176500
11
192.417000
21
87.176500
0
LINE
8
0
10
180.364000
20
75.283200
11
180.364000
21
87.176500
0
LINE
8
0
10
180.364000
20
75.283200
11
186.764000
21
75.283200
0
LINE
8
0
10
186.764000
20
75.283200
11
186.764000
21
72.403200
0
LINE
8
0
10
186.764000
20
72.403200
11
180.364000
21
72.403200
0
LINE
8
0
10
180.364000
20
60.349900
11
180.364000
21
72.403200
0
LINE
8
0
10
192.257000
20
60.349900
11
180.364000
21
60.349900
0
LINE
8
0
10
192.257000
20
60.349900
11
192.257000
21
66.749900
0
LINE
8
0
10
192.257000
20
66.749900
11
195.137000
21
66.749900
0
LINE
8
0
10
191.574000
20
45.581400
11
191.574000
21
51.981400
0
LINE
8
0
10
191.574000
20
51.981400
11
179.680000
21
51.981400
0
LINE
8
0
10
179.680000
20
51.981400
11
179.680000
21
40.248000
0
LINE
8
0
10
179.680000
20
40.248000
11
186.080000
21
40.248000
0
LINE
8
0
10
186.080000
20
40.248000
11
186.080000
21
37.208000
0
LINE
8
0
10
186.080000
20
37.208000
11
179.680000
21
37.208000
0
LINE
8
0
10
179.680000
20
37.208000
11
179.680000
21
25.314700
0
LINE
8
0
10
179.680000
20
25.314700
11
191.414000
21
25.314700
0
LINE
8
0
10
191.414000
20
25.314700
11
191.414000
21
31.714700
0
LINE
8
0
10
191.414000
20
31.714700
11
194.454000
21
31.714700
0
LINE
8
0
10
194.454000
20
31.714700
11
194.476070
21
25.314700
0
LINE
8
0
10
194.476070
20
25.314700
11
206.347000
21
25.314700
0
LINE
8
0
10
206.347000
20
25.314700
11
206.347000
21
37.208000
0
LINE
8
0
10
206.347000
20
37.208000
11
199.947000
21
37.208000
0
LINE
8
0
10
199.947000
20
37.208000
11
199.947000
21
40.248000
0
LINE
8
0
10
199.947000
20
40.248000
11
206.347000
21
40.248000
0
LINE
8
0
10
206.347000
20
40.248000
11
206.347000
21
51.981400
0
LINE
8
0
10
206.347000
20
51.981400
11
194.614000
21
51.981400
0
LINE
8
0
10
194.614000
20
51.981400
11
194.614000
21
45.581400
0
LINE
8
0
10
194.614000
20
45.581400
11
191.574000
21
45.581400
0
LINE
8
0
10
194.374000
20
31.634700
11
194.396070
21
25.234710
0
LINE
8
0
10
206.427000
20
25.234700
11
194.396000
21
25.234700
0
LINE
8
0
10
206.427000
20
37.128000
11
206.427000
21
25.234700
0
LINE
8
0
10
200.027000
20
37.128000
11
206.427000
21
37.128000
0
LINE
8
0
10
206.427000
20
40.168000
11
200.027000
21
40.168000
0
LINE
8
0
10
206.427000
20
52.061400
11
206.427000
21
40.168000
0
LINE
8
0
10
194.534000
20
52.061400
11
206.427000
21
52.061400
0
LINE
8
0
10
194.534000
20
45.661400
11
194.534000
21
52.061400
0
LINE
8
0
10
191.654000
20
45.661400
11
194.534000
21
45.661400
0
LINE
8
0
10
191.654000
20
52.061400
11
191.654000
21
45.661400
0
LINE
8
0
10
179.600000
20
52.061400
11
191.654000
21
52.061400
0
LINE
8
0
10
179.600000
20
40.168000
11
179.600000
21
52.061400
0
LINE
8
0
10
179.600000
20
40.168000
11
186.000000
21
40.168000
0
LINE
8
0
10
186.000000
20
40.168000
11
186.000000
21
37.288000
0
LINE
8
0
10
186.000000
20
37.288000
11
179.600000
21
37.288000
0
LINE
8
0
10
179.600000
20
25.234700
11
179.600000
21
37.288000
0
LINE
8
0
10
191.494000
20
25.234700
11
179.600000
21
25.234700
0
LINE
8
0
10
191.494000
20
25.234700
11
191.494000
21
31.634700
0
LINE
8
0
10
191.494000
20
31.634700
11
194.374000
21
31.634700
0
LINE
8
0
10
154.288000
20
103.598000
11
154.288000
21
109.998000
0
LINE
8
0
10
154.288000
20
109.998000
11
142.395000
21
109.998000
0
LINE
8
0
10
142.395000
20
109.998000
11
142.395000
21
98.264400
0
LINE
8
0
10
142.395000
20
98.264400
11
148.795000
21
98.264400
0
LINE
8
0
10
148.795000
20
98.264400
11
148.795000
21
95.224400
0
LINE
8
0
10
148.795000
20
95.224400
11
142.395000
21
95.224400
0
LINE
8
0
10
142.395000
20
95.224400
11
142.395000
21
83.331100
0
LINE
8
0
10
142.395000
20
83.331100
11
154.128000
21
83.331100
0
LINE
8
0
10
154.128000
20
83.331100
11
154.128000
21
89.731100
0
LINE
8
0
10
154.128000
20
89.731100
11
157.168000
21
89.731100
0
LINE
8
0
10
157.168000
20
89.731100
11
157.190070
21
83.331100
0
LINE
8
0
10
157.190070
20
83.331100
11
169.061000
21
83.331100
0
LINE
8
0
10
169.061000
20
83.331100
11
169.061000
21
95.224400
0
LINE
8
0
10
169.061000
20
95.224400
11
162.661000
21
95.224400
0
LINE
8
0
10
162.661000
20
95.224400
11
162.661000
21
98.264400
0
LINE
8
0
10
162.661000
20
98.264400
11
169.061000
21
98.264400
0
LINE
8
0
10
169.061000
20
98.264400
11
169.061000
21
109.998000
0
LINE
8
0
10
169.061000
20
109.998000
11
157.328000
21
109.998000
0
LINE
8
0
10
157.328000
20
109.998000
11
157.328000
21
103.598000
0
LINE
8
0
10
157.328000
20
103.598000
11
154.288000
21
103.598000
0
LINE
8
0
10
157.088000
20
89.651100
11
157.110070
21
83.251110
0
LINE
8
0
10
169.141000
20
83.251100
11
157.110000
21
83.251100
0
LINE
8
0
10
169.141000
20
95.144400
11
169.141000
21
83.251100
0
LINE
8
0
10
162.741000
20
95.144400
11
169.141000
21
95.144400
0
LINE
8
0
10
169.141000
20
98.184400
11
162.741000
21
98.184400
0
LINE
8
0
10
169.141000
20
110.078000
11
169.141000
21
98.184400
0
LINE
8
0
10
157.248000
20
110.078000
11
169.141000
21
110.078000
0
LINE
8
0
10
157.248000
20
103.678000
11
157.248000
21
110.078000
0
LINE
8
0
10
154.368000
20
103.678000
11
157.248000
21
103.678000
0
LINE
8
0
10
154.368000
20
110.078000
11
154.368000
21
103.678000
0
LINE
8
0
10
142.315000
20
110.078000
11
154.368000
21
110.078000
0
LINE
8
0
10
142.315000
20
98.184400
11
142.315000
21
110.078000
0
LINE
8
0
10
142.315000
20
98.184400
11
148.715000
21
98.184400
0
LINE
8
0
10
148.715000
20
98.184400
11
148.715000
21
95.304400
0
LINE
8
0
10
148.715000
20
95.304400
11
142.315000
21
95.304400
0
LINE
8
0
10
142.315000
20
83.251100
11
142.315000
21
95.304400
0
LINE
8
0
10
154.208000
20
83.251100
11
142.315000
21
83.251100
0
LINE
8
0
10
154.208000
20
83.251100
11
154.208000
21
89.651100
0
LINE
8
0
10
154.208000
20
89.651100
11
157.088000
21
89.651100
0
LINE
8
0
10
155.051000
20
65.047400
11
155.051000
21
71.447400
0
LINE
8
0
10
155.051000
20
71.447400
11
143.158000
21
71.447400
0
LINE
8
0
10
143.158000
20
71.447400
11
143.158000
21
59.714100
0
LINE
8
0
10
143.158000
20
59.714100
11
149.558000
21
59.714100
0
LINE
8
0
10
149.558000
20
59.714100
11
149.558000
21
56.674100
0
LINE
8
0
10
149.558000
20
56.674100
11
143.158000
21
56.674100
0
LINE
8
0
10
143.158000
20
56.674100
11
143.158000
21
44.780700
0
LINE
8
0
10
143.158000
20
44.780700
11
154.891000
21
44.780700
0
LINE
8
0
10
154.891000
20
44.780700
11
154.891000
21
51.180700
0
LINE
8
0
10
154.891000
20
51.180700
11
157.931000
21
51.180700
0
LINE
8
0
10
157.931000
20
51.180700
11
157.953070
21
44.780700
0
LINE
8
0
10
157.953070
20
44.780700
11
169.825000
21
44.780700
0
LINE
8
0
10
169.825000
20
44.780700
11
169.825000
21
56.674100
0
LINE
8
0
10
169.825000
20
56.674100
11
163.425000
21
56.674100
0
LINE
8
0
10
163.425000
20
56.674100
11
163.425000
21
59.714100
0
LINE
8
0
10
163.425000
20
59.714100
11
169.825000
21
59.714100
0
LINE
8
0
10
169.825000
20
59.714100
11
169.825000
21
71.447400
0
LINE
8
0
10
169.825000
20
71.447400
11
158.091000
21
71.447400
0
LINE
8
0
10
158.091000
20
71.447400
11
158.091000
21
65.047400
0
LINE
8
0
10
158.091000
20
65.047400
11
155.051000
21
65.047400
0
LINE
8
0
10
157.852000
20
51.100700
11
157.874070
21
44.700710
0
LINE
8
0
10
169.905000
20
44.700700
11
157.874000
21
44.700700
0
LINE
8
0
10
169.905000
20
56.594100
11
169.905000
21
44.700700
0
LINE
8
0
10
163.505000
20
56.594100
11
169.905000
21
56.594100
0
LINE
8
0
10
169.905000
20
59.634100
11
163.505000
21
59.634100
0
LINE
8
0
10
169.905000
20
71.527400
11
169.905000
21
59.634100
0
LINE
8
0
10
158.011000
20
71.527400
11
169.905000
21
71.527400
0
LINE
8
0
10
158.011000
20
65.127400
11
158.011000
21
71.527400
0
LINE
8
0
10
155.131000
20
65.127400
11
158.011000
21
65.127400
0
LINE
8
0
10
155.131000
20
71.527400
11
155.131000
21
65.127400
0
LINE
8
0
10
143.078000
20
71.527400
11
155.131000
21
71.527400
0
LINE
8
0
10
143.078000
20
59.634100
11
143.078000
21
71.527400
0
LINE
8
0
10
143.078000
20
59.634100
11
149.478000
21
59.634100
0
LINE
8
0
10
149.478000
20
59.634100
11
149.478000
21
56.754100
0
LINE
8
0
10
149.478000
20
56.754100
11
143.078000
21
56.754100
0
LINE
8
0
10
143.078000
20
44.700700
11
143.078000
21
56.754100
0
LINE
8
0
10
154.971000
20
44.700700
11
143.078000
21
44.700700
0
LINE
8
0
10
154.971000
20
44.700700
11
154.971000
21
51.100700
0
LINE
8
0
10
154.971000
20
51.100700
11
157.852000
21
51.100700
0
LINE
8
0
10
155.051000
20
28.405500
11
155.051000
21
34.805500
0
LINE
8
0
10
155.051000
20
34.805500
11
143.158000
21
34.805500
0
LINE
8
0
10
143.158000
20
34.805500
11
143.158000
21
23.072200
0
LINE
8
0
10
143.158000
20
23.072200
11
149.558000
21
23.072200
0
LINE
8
0
10
149.558000
20
23.072200
11
149.558000
21
20.032200
0
LINE
8
0
10
149.558000
20
20.032200
11
143.158000
21
20.032200
0
LINE
8
0
10
143.158000
20
20.032200
11
143.158000
21
8.138830
0
LINE
8
0
10
143.158000
20
8.138830
11
154.891000
21
8.138830
0
LINE
8
0
10
154.891000
20
8.138830
11
154.891000
21
14.538800
0
LINE
8
0
10
154.891000
20
14.538800
11
157.931000
21
14.538800
0
LINE
8
0
10
157.931000
20
14.538800
11
157.953070
21
8.138800
0
LINE
8
0
10
157.953070
20
8.138800
11
169.825000
21
8.138830
0
LINE
8
0
10
169.825000
20
8.138830
11
169.825000
21
20.032200
0
LINE
8
0
10
169.825000
20
20.032200
11
163.425000
21
20.032200
0
LINE
8
0
10
163.425000
20
20.032200
11
163.425000
21
23.072200
0
LINE
8
0
10
163.425000
20
23.072200
11
169.825000
21
23.072200
0
LINE
8
0
10
169.825000
20
23.072200
11
169.825000
21
34.805500
0
LINE
8
0
10
169.825000
20
34.805500
11
158.091000
21
34.805500
0
LINE
8
0
10
158.091000
20
34.805500
11
158.091000
21
28.405500
0
LINE
8
0
10
158.091000
20
28.405500
11
155.051000
21
28.405500
0
LINE
8
0
10
157.852000
20
14.458800
11
157.874070
21
8.058810
0
LINE
8
0
10
169.905000
20
8.058830
11
157.874000
21
8.058830
0
LINE
8
0
10
169.905000
20
19.952200
11
169.905000
21
8.058830
0
LINE
8
0
10
163.505000
20
19.952200
11
169.905000
21
19.952200
0
LINE
8
0
10
169.905000
20
22.992200
11
163.505000
21
22.992200
0
LINE
8
0
10
169.905000
20
34.885500
11
169.905000
21
22.992200
0
LINE
8
0
10
158.011000
20
34.885500
11
169.905000
21
34.885500
0
LINE
8
0
10
158.011000
20
28.485500
11
158.011000
21
34.885500
0
LINE
8
0
10
155.131000
20
28.485500
11
158.011000
21
28.485500
0
LINE
8
0
10
155.131000
20
34.885500
11
155.131000
21
28.485500
0
LINE
8
0
10
143.078000
20
34.885500
11
155.131000
21
34.885500
0
LINE
8
0
10
143.078000
20
22.992200
11
143.078000
21
34.885500
0
LINE
8
0
10
143.078000
20
22.992200
11
149.478000
21
22.992200
0
LINE
8
0
10
149.478000
20
22.992200
11
149.478000
21
20.112200
0
LINE
8
0
10
149.478000
20
20.112200
11
143.078000
21
20.112200
0
LINE
8
0
10
143.078000
20
8.058830
11
143.078000
21
20.112200
0
LINE
8
0
10
154.971000
20
8.058830
11
143.078000
21
8.058830
0
LINE
8
0
10
154.971000
20
8.058830
11
154.971000
21
14.458800
0
LINE
8
0
10
154.971000
20
14.458800
11
157.852000
21
14.458800
0
LINE
8
0
10
118.410000
20
28.405500
11
118.410000
21
34.805500
0
LINE
8
0
10
118.410000
20
34.805500
11
106.516000
21
34.805500
0
LINE
8
0
10
106.516000
20
34.805500
11
106.516000
21
23.072200
0
LINE
8
0
10
106.516000
20
23.072200
11
112.916000
21
23.072200
0
LINE
8
0
10
112.916000
20
23.072200
11
112.916000
21
20.032200
0
LINE
8
0
10
112.916000
20
20.032200
11
106.516000
21
20.032200
0
LINE
8
0
10
106.516000
20
20.032200
11
106.516000
21
8.138830
0
LINE
8
0
10
106.516000
20
8.138830
11
118.250000
21
8.138830
0
LINE
8
0
10
118.250000
20
8.138830
11
118.250000
21
14.538800
0
LINE
8
0
10
118.250000
20
14.538800
11
121.290000
21
14.538800
0
LINE
8
0
10
121.290000
20
14.538800
11
121.312070
21
8.138800
0
LINE
8
0
10
121.312070
20
8.138800
11
133.183000
21
8.138830
0
LINE
8
0
10
133.183000
20
8.138830
11
133.183000
21
20.032200
0
LINE
8
0
10
133.183000
20
20.032200
11
126.783000
21
20.032200
0
LINE
8
0
10
126.783000
20
20.032200
11
126.783000
21
23.072200
0
LINE
8
0
10
126.783000
20
23.072200
11
133.183000
21
23.072200
0
LINE
8
0
10
133.183000
20
23.072200
11
133.183000
21
34.805500
0
LINE
8
0
10
133.183000
20
34.805500
11
121.450000
21
34.805500
0
LINE
8
0
10
121.450000
20
34.805500
11
121.450000
21
28.405500
0
LINE
8
0
10
121.450000
20
28.405500
11
118.410000
21
28.405500
0
LINE
8
0
10
121.210000
20
14.458800
11
121.232070
21
8.058810
0
LINE
8
0
10
133.263000
20
8.058830
11
121.232000
21
8.058830
0
LINE
8
0
10
133.263000
20
19.952200
11
133.263000
21
8.058830
0
LINE
8
0
10
126.863000
20
19.952200
11
133.263000
21
19.952200
0
LINE
8
0
10
133.263000
20
22.992200
11
126.863000
21
22.992200
0
LINE
8
0
10
133.263000
20
34.885500
11
133.263000
21
22.992200
0
LINE
8
0
10
121.370000
20
34.885500
11
133.263000
21
34.885500
0
LINE
8
0
10
121.370000
20
28.485500
11
121.370000
21
34.885500
0
LINE
8
0
10
118.490000
20
28.485500
11
121.370000
21
28.485500
0
LINE
8
0
10
118.490000
20
34.885500
11
118.490000
21
28.485500
0
LINE
8
0
10
106.436000
20
34.885500
11
118.490000
21
34.885500
0
LINE
8
0
10
106.436000
20
22.992200
11
106.436000
21
34.885500
0
LINE
8
0
10
106.436000
20
22.992200
11
112.836000
21
22.992200
0
LINE
8
0
10
112.836000
20
22.992200
11
112.836000
21
20.112200
0
LINE
8
0
10
112.836000
20
20.112200
11
106.436000
21
20.112200
0
LINE
8
0
10
106.436000
20
8.058830
11
106.436000
21
20.112200
0
LINE
8
0
10
118.330000
20
8.058830
11
106.436000
21
8.058830
0
LINE
8
0
10
118.330000
20
8.058830
11
118.330000
21
14.458800
0
LINE
8
0
10
118.330000
20
14.458800
11
121.210000
21
14.458800
0
LINE
8
0
10
67.155900
20
84.758300
11
67.170152
21
91.239230
0
LINE
8
0
10
67.170152
20
91.239230
11
64.929823
21
90.849778
0
LINE
8
0
10
64.929823
20
90.849778
11
62.832662
21
90.104581
0
LINE
8
0
10
62.832662
20
90.104581
11
60.912506
21
89.035438
0
LINE
8
0
10
60.912506
20
89.035438
11
59.203189
21
87.674150
0
LINE
8
0
10
59.203189
20
87.674150
11
57.738550
21
86.052515
0
LINE
8
0
10
57.738550
20
86.052515
11
56.552423
21
84.202333
0
LINE
8
0
10
56.552423
20
84.202333
11
55.678645
21
82.155405
0
LINE
8
0
10
55.678645
20
82.155405
11
55.151052
21
79.943530
0
LINE
8
0
10
55.151052
20
79.943530
11
61.551100
21
79.943400
0
LINE
8
0
10
61.551100
20
79.943400
11
61.552229
21
76.903400
0
LINE
8
0
10
61.552229
20
76.903400
11
55.045539
21
76.901142
0
LINE
8
0
10
55.045539
20
76.901142
11
55.450719
21
74.532938
0
LINE
8
0
10
55.450719
20
74.532938
11
56.251141
21
72.327933
0
LINE
8
0
10
56.251141
20
72.327933
11
57.408440
21
70.324670
0
LINE
8
0
10
57.408440
20
70.324670
11
58.884256
21
68.561694
0
LINE
8
0
10
58.884256
20
68.561694
11
60.640226
21
67.077549
0
LINE
8
0
10
60.640226
20
67.077549
11
62.637988
21
65.910779
0
LINE
8
0
10
62.637988
20
65.910779
11
64.839180
21
65.099929
0
LINE
8
0
10
64.839180
20
65.099929
11
67.205439
21
64.683542
0
LINE
8
0
10
67.205439
20
64.683542
11
67.205400
21
71.174200
0
LINE
8
0
10
67.205400
20
71.174200
11
70.245400
21
71.174482
0
LINE
8
0
10
70.245400
20
71.174482
11
70.245964
21
64.774492
0
LINE
8
0
10
70.245964
20
64.774492
11
72.472693
21
65.295214
0
LINE
8
0
10
72.472693
20
65.295214
11
74.533764
21
66.166555
0
LINE
8
0
10
74.533764
20
66.166555
11
76.396812
21
67.354167
0
LINE
8
0
10
76.396812
20
67.354167
11
78.029473
21
68.823702
0
LINE
8
0
10
78.029473
20
68.823702
11
79.399384
21
70.540810
0
LINE
8
0
10
79.399384
20
70.540810
11
80.474179
21
72.471143
0
LINE
8
0
10
80.474179
20
72.471143
11
81.221494
21
74.580354
0
LINE
8
0
10
81.221494
20
74.580354
11
81.608964
21
76.834092
0
LINE
8
0
10
81.608964
20
76.834092
11
75.119100
21
76.834100
0
LINE
8
0
10
75.119100
20
76.834100
11
75.119100
21
79.874100
0
LINE
8
0
10
75.119100
20
79.874100
11
81.519100
21
79.874100
0
LINE
8
0
10
81.519100
20
79.874100
11
81.029200
21
82.007223
0
LINE
8
0
10
81.029200
20
82.007223
11
80.215926
21
83.992620
0
LINE
8
0
10
80.215926
20
83.992620
11
79.108739
21
85.800932
0
LINE
8
0
10
79.108739
20
85.800932
11
77.737101
21
87.402798
0
LINE
8
0
10
77.737101
20
87.402798
11
76.130476
21
88.768858
0
LINE
8
0
10
76.130476
20
88.768858
11
74.318326
21
89.869752
0
LINE
8
0
10
74.318326
20
89.869752
11
72.330113
21
90.676119
0
LINE
8
0
10
72.330113
20
90.676119
11
70.195300
21
91.158600
0
LINE
8
0
10
70.195300
20
91.158600
11
70.195864
21
84.758600
0
LINE
8
0
10
70.195864
20
84.758600
11
67.155900
21
84.758300
0
LINE
8
0
10
81.695700
20
76.914100
11
75.199100
21
76.914100
0
LINE
8
0
10
75.199100
20
76.914100
11
75.199100
21
79.794100
0
LINE
8
0
10
75.199100
20
79.794100
11
81.611200
21
79.794100
0
LINE
8
0
10
81.611200
20
79.794100
11
81.125882
21
81.966888
0
LINE
8
0
10
81.125882
20
81.966888
11
80.307456
21
83.989024
0
LINE
8
0
10
80.307456
20
83.989024
11
79.186524
21
85.830013
0
LINE
8
0
10
79.186524
20
85.830013
11
77.793686
21
87.459359
0
LINE
8
0
10
77.793686
20
87.459359
11
76.159544
21
88.846566
0
LINE
8
0
10
76.159544
20
88.846566
11
74.314698
21
89.961139
0
LINE
8
0
10
74.314698
20
89.961139
11
72.289750
21
90.772582
0
LINE
8
0
10
72.289750
20
90.772582
11
70.115300
21
91.250400
0
LINE
8
0
10
70.115300
20
91.250400
11
70.115864
21
84.838610
0
LINE
8
0
10
70.115864
20
84.838610
11
67.236054
21
84.838328
0
LINE
8
0
10
67.236054
20
84.838328
11
67.250335
21
91.326278
0
LINE
8
0
10
67.250335
20
91.326278
11
64.970610
21
90.943219
0
LINE
8
0
10
64.970610
20
90.943219
11
62.836662
21
90.194268
0
LINE
8
0
10
62.836662
20
90.194268
11
60.883565
21
89.112399
0
LINE
8
0
10
60.883565
20
89.112399
11
59.146393
21
87.730590
0
LINE
8
0
10
59.146393
20
87.730590
11
57.660220
21
86.081816
0
LINE
8
0
10
57.660220
20
86.081816
11
56.460120
21
84.199056
0
LINE
8
0
10
56.460120
20
84.199056
11
55.581167
21
82.115284
0
LINE
8
0
10
55.581167
20
82.115284
11
55.058435
21
79.863478
0
LINE
8
0
10
55.058435
20
79.863478
11
61.471000
21
79.863500
0
LINE
8
0
10
61.471000
20
79.863500
11
61.472129
21
76.983470
0
LINE
8
0
10
61.472129
20
76.983470
11
54.959099
21
76.981212
0
LINE
8
0
10
54.959099
20
76.981212
11
55.357153
21
74.573508
0
LINE
8
0
10
55.357153
20
74.573508
11
56.161039
21
72.331708
0
LINE
8
0
10
56.161039
20
72.331708
11
57.331086
21
70.295671
0
LINE
8
0
10
57.331086
20
70.295671
11
58.827625
21
68.505254
0
LINE
8
0
10
58.827625
20
68.505254
11
60.610986
21
67.000312
0
LINE
8
0
10
60.610986
20
67.000312
11
62.641499
21
65.820703
0
LINE
8
0
10
62.641499
20
65.820703
11
64.879493
21
65.006284
0
LINE
8
0
10
64.879493
20
65.006284
11
67.285299
21
64.596912
0
LINE
8
0
10
67.285299
20
64.596912
11
67.285300
21
71.094300
0
LINE
8
0
10
67.285300
20
71.094300
11
70.165310
21
71.094568
0
LINE
8
0
10
70.165310
20
71.094568
11
70.165874
21
64.682438
0
LINE
8
0
10
70.165874
20
64.682438
11
72.432476
21
65.198119
0
LINE
8
0
10
72.432476
20
65.198119
11
74.530358
21
66.074496
0
LINE
8
0
10
74.530358
20
66.074496
11
76.425969
21
67.275976
0
LINE
8
0
10
76.425969
20
67.275976
11
78.085758
21
68.766965
0
LINE
8
0
10
78.085758
20
68.766965
11
79.476175
21
70.511869
0
LINE
8
0
10
79.476175
20
70.511869
11
80.563667
21
72.475095
0
LINE
8
0
10
80.563667
20
72.475095
11
81.314684
21
74.621050
0
LINE
8
0
10
81.314684
20
74.621050
11
81.695674
21
76.914138
0
LINE
8
0
10
81.695674
20
76.914138
11
81.695700
21
76.914100
0
LINE
8
0
10
29.750700
20
84.758300
11
29.764952
21
91.239230
0
LINE
8
0
10
29.764952
20
91.239230
11
27.524601
21
90.849778
0
LINE
8
0
10
27.524601
20
90.849778
11
25.427421
21
90.104575
0
LINE
8
0
10
25.427421
20
90.104575
11
23.507249
21
89.035420
0
LINE
8
0
10
23.507249
20
89.035420
11
21.797922
21
87.674114
0
LINE
8
0
10
21.797922
20
87.674114
11
20.333276
21
86.052459
0
LINE
8
0
10
20.333276
20
86.052459
11
19.147149
21
84.202254
0
LINE
8
0
10
19.147149
20
84.202254
11
18.273378
21
82.155301
0
LINE
8
0
10
18.273378
20
82.155301
11
17.745800
21
79.943400
0
LINE
8
0
10
17.745800
20
79.943400
11
24.145800
21
79.943400
0
LINE
8
0
10
24.145800
20
79.943400
11
24.146929
21
76.903400
0
LINE
8
0
10
24.146929
20
76.903400
11
17.640239
21
76.901142
0
LINE
8
0
10
17.640239
20
76.901142
11
18.045419
21
74.532938
0
LINE
8
0
10
18.045419
20
74.532938
11
18.845841
21
72.327933
0
LINE
8
0
10
18.845841
20
72.327933
11
20.003140
21
70.324670
0
LINE
8
0
10
20.003140
20
70.324670
11
21.478956
21
68.561694
0
LINE
8
0
10
21.478956
20
68.561694
11
23.234926
21
67.077549
0
LINE
8
0
10
23.234926
20
67.077549
11
25.232688
21
65.910779
0
LINE
8
0
10
25.232688
20
65.910779
11
27.433880
21
65.099929
0
LINE
8
0
10
27.433880
20
65.099929
11
29.800139
21
64.683542
0
LINE
8
0
10
29.800139
20
64.683542
11
29.800100
21
71.174200
0
LINE
8
0
10
29.800100
20
71.174200
11
32.840100
21
71.174482
0
LINE
8
0
10
32.840100
20
71.174482
11
32.840664
21
64.774492
0
LINE
8
0
10
32.840664
20
64.774492
11
35.067393
21
65.295214
0
LINE
8
0
10
35.067393
20
65.295214
11
37.128464
21
66.166555
0
LINE
8
0
10
37.128464
20
66.166555
11
38.991512
21
67.354167
0
LINE
8
0
10
38.991512
20
67.354167
11
40.624173
21
68.823702
0
LINE
8
0
10
40.624173
20
68.823702
11
41.994084
21
70.540810
0
LINE
8
0
10
41.994084
20
70.540810
11
43.068879
21
72.471143
0
LINE
8
0
10
43.068879
20
72.471143
11
43.816194
21
74.580354
0
LINE
8
0
10
43.816194
20
74.580354
11
44.203664
21
76.834092
0
LINE
8
0
10
44.203664
20
76.834092
11
37.713800
21
76.834100
0
LINE
8
0
10
37.713800
20
76.834100
11
37.713800
21
79.874100
0
LINE
8
0
10
37.713800
20
79.874100
11
44.113800
21
79.874100
0
LINE
8
0
10
44.113800
20
79.874100
11
43.623900
21
82.007223
0
LINE
8
0
10
43.623900
20
82.007223
11
42.810626
21
83.992620
0
LINE
8
0
10
42.810626
20
83.992620
11
41.703439
21
85.800932
0
LINE
8
0
10
41.703439
20
85.800932
11
40.331801
21
87.402798
0
LINE
8
0
10
40.331801
20
87.402798
11
38.725176
21
88.768858
0
LINE
8
0
10
38.725176
20
88.768858
11
36.913026
21
89.869752
0
LINE
8
0
10
36.913026
20
89.869752
11
34.924813
21
90.676119
0
LINE
8
0
10
34.924813
20
90.676119
11
32.790000
21
91.158600
0
LINE
8
0
10
32.790000
20
91.158600
11
32.790564
21
84.758600
0
LINE
8
0
10
32.790564
20
84.758600
11
29.750700
21
84.758300
0
LINE
8
0
10
44.290400
20
76.914100
11
37.793800
21
76.914100
0
LINE
8
0
10
37.793800
20
76.914100
11
37.793800
21
79.794100
0
LINE
8
0
10
37.793800
20
79.794100
11
44.205900
21
79.794100
0
LINE
8
0
10
44.205900
20
79.794100
11
43.720582
21
81.966888
0
LINE
8
0
10
43.720582
20
81.966888
11
42.902156
21
83.989024
0
LINE
8
0
10
42.902156
20
83.989024
11
41.781224
21
85.830013
0
LINE
8
0
10
41.781224
20
85.830013
11
40.388386
21
87.459359
0
LINE
8
0
10
40.388386
20
87.459359
11
38.754244
21
88.846566
0
LINE
8
0
10
38.754244
20
88.846566
11
36.909398
21
89.961139
0
LINE
8
0
10
36.909398
20
89.961139
11
34.884450
21
90.772582
0
LINE
8
0
10
34.884450
20
90.772582
11
32.710000
21
91.250400
0
LINE
8
0
10
32.710000
20
91.250400
11
32.710564
21
84.838610
0
LINE
8
0
10
32.710564
20
84.838610
11
29.830754
21
84.838328
0
LINE
8
0
10
29.830754
20
84.838328
11
29.845035
21
91.326278
0
LINE
8
0
10
29.845035
20
91.326278
11
27.565310
21
90.943219
0
LINE
8
0
10
27.565310
20
90.943219
11
25.431362
21
90.194268
0
LINE
8
0
10
25.431362
20
90.194268
11
23.478265
21
89.112399
0
LINE
8
0
10
23.478265
20
89.112399
11
21.741093
21
87.730590
0
LINE
8
0
10
21.741093
20
87.730590
11
20.254920
21
86.081816
0
LINE
8
0
10
20.254920
20
86.081816
11
19.054820
21
84.199056
0
LINE
8
0
10
19.054820
20
84.199056
11
18.175867
21
82.115284
0
LINE
8
0
10
18.175867
20
82.115284
11
17.653135
21
79.863478
0
LINE
8
0
10
17.653135
20
79.863478
11
24.065800
21
79.863500
0
LINE
8
0
10
24.065800
20
79.863500
11
24.066929
21
76.983470
0
LINE
8
0
10
24.066929
20
76.983470
11
17.553899
21
76.981212
0
LINE
8
0
10
17.553899
20
76.981212
11
17.951953
21
74.573508
0
LINE
8
0
10
17.951953
20
74.573508
11
18.755839
21
72.331708
0
LINE
8
0
10
18.755839
20
72.331708
11
19.925886
21
70.295671
0
LINE
8
0
10
19.925886
20
70.295671
11
21.422425
21
68.505254
0
LINE
8
0
10
21.422425
20
68.505254
11
23.205786
21
67.000312
0
LINE
8
0
10
23.205786
20
67.000312
11
25.236299
21
65.820703
0
LINE
8
0
10
25.236299
20
65.820703
11
27.474293
21
65.006284
0
LINE
8
0
10
27.474293
20
65.006284
11
29.880099
21
64.596912
0
LINE
8
0
10
29.880099
20
64.596912
11
29.880100
21
71.094200
0
LINE
8
0
10
29.880100
20
71.094200
11
32.760110
21
71.094468
0
LINE
8
0
10
32.760110
20
71.094468
11
32.760674
21
64.682338
0
LINE
8
0
10
32.760674
20
64.682338
11
35.027276
21
65.198019
0
LINE
8
0
10
35.027276
20
65.198019
11
37.125158
21
66.074396
0
LINE
8
0
10
37.125158
20
66.074396
11
39.020769
21
67.275876
0
LINE
8
0
10
39.020769
20
67.275876
11
40.680558
21
68.766865
0
LINE
8
0
10
40.680558
20
68.766865
11
42.070975
21
70.511769
0
LINE
8
0
10
42.070975
20
70.511769
11
43.158467
21
72.474995
0
LINE
8
0
10
43.158467
20
72.474995
11
43.909484
21
74.620950
0
LINE
8
0
10
43.909484
20
74.620950
11
44.290474
21
76.914038
0
LINE
8
0
10
44.290474
20
76.914038
11
44.290400
21
76.914100
0
LINE
8
0
10
65.355100
20
36.504700
11
65.355097
21
30.104700
0
LINE
8
0
10
65.355097
20
30.104700
11
50.795097
21
30.104706
0
LINE
8
0
10
50.795097
20
30.104706
11
58.066797
21
42.699606
0
LINE
8
0
10
58.066797
20
42.699606
11
63.617647
21
39.513976
0
LINE
8
0
10
63.617647
20
39.513976
11
65.137647
21
42.146696
0
LINE
8
0
10
65.137647
20
42.146696
11
59.595087
21
45.346696
0
LINE
8
0
10
59.595087
20
45.346696
11
66.795087
21
57.817496
0
LINE
8
0
10
66.795087
20
57.817496
11
73.995077
21
45.346696
0
LINE
8
0
10
73.995077
20
45.346696
11
68.452517
21
42.146696
0
LINE
8
0
10
68.452517
20
42.146696
11
69.972517
21
39.513986
0
LINE
8
0
10
69.972517
20
39.513986
11
75.515077
21
42.713976
0
LINE
8
0
10
75.515077
20
42.713976
11
82.795067
21
30.104676
0
LINE
8
0
10
82.795067
20
30.104676
11
68.395067
21
30.104678
0
LINE
8
0
10
68.395067
20
30.104678
11
68.395100
21
36.504700
0
LINE
8
0
10
68.395100
20
36.504700
11
65.355100
21
36.504700
0
LINE
8
0
10
50.656600
20
30.024700
11
65.435200
21
30.024697
0
LINE
8
0
10
65.435100
20
30.024700
11
65.435100
21
36.424700
0
LINE
8
0
10
65.435100
20
36.424700
11
68.315100
21
36.424697
0
LINE
8
0
10
68.315100
20
36.424700
11
68.315097
21
30.024710
0
LINE
8
0
10
68.315100
20
30.024700
11
82.933700
21
30.024697
0
LINE
8
0
10
82.933700
20
30.024700
11
75.544400
21
42.823300
0
LINE
8
0
10
70.001800
20
39.623300
11
75.544360
21
42.823290
0
LINE
8
0
10
68.561800
20
42.117500
11
70.001800
21
39.623350
0
LINE
8
0
10
74.104400
20
45.317500
11
68.561840
21
42.117500
0
LINE
8
0
10
74.104400
20
45.317500
11
66.795100
21
57.977500
0
LINE
8
0
10
66.795100
20
57.977500
11
59.485820
21
45.317500
0
LINE
8
0
10
59.485900
20
45.317500
11
65.028460
21
42.117500
0
LINE
8
0
10
65.028400
20
42.117500
11
63.588300
21
39.623170
0
LINE
8
0
10
63.588300
20
39.623100
11
58.037500
21
42.808800
0
LINE
8
0
10
58.037500
20
42.808800
11
50.656620
21
30.024700
0
LINE
8
0
10
29.094900
20
1.389550
11
29.094897
21
-5.010450
0
LINE
8
0
10
29.094897
20
-5.010450
11
14.534897
21
-5.010444
0
LINE
8
0
10
14.534897
20
-5.010444
11
21.806597
21
7.584456
0
LINE
8
0
10
21.806597
20
7.584456
11
27.357447
21
4.398826
0
LINE
8
0
10
27.357447
20
4.398826
11
28.877447
21
7.031546
0
LINE
8
0
10
28.877447
20
7.031546
11
23.334887
21
10.231546
0
LINE
8
0
10
23.334887
20
10.231546
11
30.534887
21
22.702346
0
LINE
8
0
10
30.534887
20
22.702346
11
37.734877
21
10.231546
0
LINE
8
0
10
37.734877
20
10.231546
11
32.192317
21
7.031546
0
LINE
8
0
10
32.192317
20
7.031546
11
33.712317
21
4.398836
0
LINE
8
0
10
33.712317
20
4.398836
11
39.254877
21
7.598826
0
LINE
8
0
10
39.254877
20
7.598826
11
46.534867
21
-5.010474
0
LINE
8
0
10
46.534867
20
-5.010474
11
32.134867
21
-5.010472
0
LINE
8
0
10
32.134867
20
-5.010472
11
32.134900
21
1.389550
0
LINE
8
0
10
32.134900
20
1.389550
11
29.094900
21
1.389550
0
LINE
8
0
10
14.396400
20
-5.090440
11
29.175000
21
-5.090443
0
LINE
8
0
10
29.174900
20
-5.090450
11
29.174900
21
1.309550
0
LINE
8
0
10
29.174900
20
1.309550
11
32.054900
21
1.309547
0
LINE
8
0
10
32.054900
20
1.309550
11
32.054897
21
-5.090440
0
LINE
8
0
10
32.054900
20
-5.090450
11
46.673500
21
-5.090453
0
LINE
8
0
10
46.673500
20
-5.090450
11
39.284200
21
7.708150
0
LINE
8
0
10
33.741600
20
4.508160
11
39.284160
21
7.708150
0
LINE
8
0
10
32.301600
20
7.002310
11
33.741600
21
4.508160
0
LINE
8
0
10
37.844200
20
10.202300
11
32.301640
21
7.002300
0
LINE
8
0
10
37.844200
20
10.202300
11
30.534900
21
22.862300
0
LINE
8
0
10
30.534900
20
22.862300
11
23.225600
21
10.202300
0
LINE
8
0
10
23.225600
20
10.202300
11
28.768160
21
7.002300
0
LINE
8
0
10
28.768200
20
7.002310
11
27.328100
21
4.507980
0
LINE
8
0
10
27.328100
20
4.507980
11
21.777200
21
7.693610
0
LINE
8
0
10
21.777200
20
7.693610
11
14.396320
21
-5.090490
0
LINE
8
0
10
65.247500
20
14.528000
11
65.261752
21
21.008930
0
LINE
8
0
10
65.261752
20
21.008930
11
63.021423
21
20.619478
0
LINE
8
0
10
63.021423
20
20.619478
11
60.924262
21
19.874281
0
LINE
8
0
10
60.924262
20
19.874281
11
59.004106
21
18.805138
0
LINE
8
0
10
59.004106
20
18.805138
11
57.294789
21
17.443850
0
LINE
8
0
10
57.294789
20
17.443850
11
55.830150
21
15.822215
0
LINE
8
0
10
55.830150
20
15.822215
11
54.644023
21
13.972033
0
LINE
8
0
10
54.644023
20
13.972033
11
53.770245
21
11.925105
0
LINE
8
0
10
53.770245
20
11.925105
11
53.242652
21
9.713230
0
LINE
8
0
10
53.242652
20
9.713230
11
59.642600
21
9.713140
0
LINE
8
0
10
59.642600
20
9.713140
11
59.643729
21
6.673140
0
LINE
8
0
10
59.643729
20
6.673140
11
53.137039
21
6.670882
0
LINE
8
0
10
53.137039
20
6.670882
11
53.542219
21
4.302678
0
LINE
8
0
10
53.542219
20
4.302678
11
54.342641
21
2.097673
0
LINE
8
0
10
54.342641
20
2.097673
11
55.499940
21
0.094410
0
LINE
8
0
10
55.499940
20
0.094410
11
56.975756
21
-1.668566
0
LINE
8
0
10
56.975756
20
-1.668566
11
58.731726
21
-3.152711
0
LINE
8
0
10
58.731726
20
-3.152711
11
60.729488
21
-4.319481
0
LINE
8
0
10
60.729488
20
-4.319481
11
62.930680
21
-5.130331
0
LINE
8
0
10
62.930680
20
-5.130331
11
65.296939
21
-5.546718
0
LINE
8
0
10
65.296939
20
-5.546718
11
65.296900
21
0.943926
0
LINE
8
0
10
65.296900
20
0.943926
11
68.336900
21
0.944208
0
LINE
8
0
10
68.336900
20
0.944208
11
68.337464
21
-5.455782
0
LINE
8
0
10
68.337464
20
-5.455782
11
70.564193
21
-4.935060
0
LINE
8
0
10
70.564193
20
-4.935060
11
72.625264
21
-4.063719
0
LINE
8
0
10
72.625264
20
-4.063719
11
74.488312
21
-2.876107
0
LINE
8
0
10
74.488312
20
-2.876107
11
76.120973
21
-1.406572
0
LINE
8
0
10
76.120973
20
-1.406572
11
77.490884
21
0.310536
0
LINE
8
0
10
77.490884
20
0.310536
11
78.565679
21
2.240869
0
LINE
8
0
10
78.565679
20
2.240869
11
79.312994
21
4.350080
0
LINE
8
0
10
79.312994
20
4.350080
11
79.700464
21
6.603818
0
LINE
8
0
10
79.700464
20
6.603818
11
73.210600
21
6.603780
0
LINE
8
0
10
73.210600
20
6.603780
11
73.210600
21
9.643780
0
LINE
8
0
10
73.210600
20
9.643780
11
79.610600
21
9.643780
0
LINE
8
0
10
79.610600
20
9.643780
11
79.120700
21
11.776903
0
LINE
8
0
10
79.120700
20
11.776903
11
78.307426
21
13.762300
0
LINE
8
0
10
78.307426
20
13.762300
11
77.200239
21
15.570612
0
LINE
8
0
10
77.200239
20
15.570612
11
75.828601
21
17.172478
0
LINE
8
0
10
75.828601
20
17.172478
11
74.221976
21
18.538538
0
LINE
8
0
10
74.221976
20
18.538538
11
72.409826
21
19.639432
0
LINE
8
0
10
72.409826
20
19.639432
11
70.421613
21
20.445799
0
LINE
8
0
10
70.421613
20
20.445799
11
68.286800
21
20.928280
0
LINE
8
0
10
68.286800
20
20.928280
11
68.287364
21
14.528280
0
LINE
8
0
10
68.287364
20
14.528280
11
65.247500
21
14.528000
0
LINE
8
0
10
79.787300
20
6.683750
11
73.290600
21
6.683750
0
LINE
8
0
10
73.290600
20
6.683750
11
73.290600
21
9.563750
0
LINE
8
0
10
73.290600
20
9.563750
11
79.702700
21
9.563750
0
LINE
8
0
10
79.702700
20
9.563750
11
79.217382
21
11.736538
0
LINE
8
0
10
79.217382
20
11.736538
11
78.398956
21
13.758674
0
LINE
8
0
10
78.398956
20
13.758674
11
77.278024
21
15.599663
0
LINE
8
0
10
77.278024
20
15.599663
11
75.885186
21
17.229009
0
LINE
8
0
10
75.885186
20
17.229009
11
74.251044
21
18.616216
0
LINE
8
0
10
74.251044
20
18.616216
11
72.406198
21
19.730789
0
LINE
8
0
10
72.406198
20
19.730789
11
70.381250
21
20.542232
0
LINE
8
0
10
70.381250
20
20.542232
11
68.206800
21
21.020050
0
LINE
8
0
10
68.206800
20
21.020050
11
68.207364
21
14.608260
0
LINE
8
0
10
68.207364
20
14.608260
11
65.327554
21
14.607978
0
LINE
8
0
10
65.327554
20
14.607978
11
65.341835
21
21.095928
0
LINE
8
0
10
65.341835
20
21.095928
11
63.062110
21
20.712869
0
LINE
8
0
10
63.062110
20
20.712869
11
60.928162
21
19.963918
0
LINE
8
0
10
60.928162
20
19.963918
11
58.975065
21
18.882049
0
LINE
8
0
10
58.975065
20
18.882049
11
57.237893
21
17.500240
0
LINE
8
0
10
57.237893
20
17.500240
11
55.751720
21
15.851466
0
LINE
8
0
10
55.751720
20
15.851466
11
54.551620
21
13.968706
0
LINE
8
0
10
54.551620
20
13.968706
11
53.672667
21
11.884934
0
LINE
8
0
10
53.672667
20
11.884934
11
53.149935
21
9.633128
0
LINE
8
0
10
53.149935
20
9.633128
11
59.562600
21
9.633150
0
LINE
8
0
10
59.562600
20
9.633150
11
59.563729
21
6.753120
0
LINE
8
0
10
59.563729
20
6.753120
11
53.050699
21
6.750862
0
LINE
8
0
10
53.050699
20
6.750862
11
53.448753
21
4.343158
0
LINE
8
0
10
53.448753
20
4.343158
11
54.252639
21
2.101358
0
LINE
8
0
10
54.252639
20
2.101358
11
55.422686
21
0.065321
0
LINE
8
0
10
55.422686
20
0.065321
11
56.919225
21
-1.725096
0
LINE
8
0
10
56.919225
20
-1.725096
11
58.702586
21
-3.230038
0
LINE
8
0
10
58.702586
20
-3.230038
11
60.733099
21
-4.409647
0
LINE
8
0
10
60.733099
20
-4.409647
11
62.971093
21
-5.224066
0
LINE
8
0
10
62.971093
20
-5.224066
11
65.376899
21
-5.633438
0
LINE
8
0
10
65.376899
20
-5.633438
11
65.376900
21
0.863944
0
LINE
8
0
10
65.376900
20
0.863944
11
68.256910
21
0.864212
0
LINE
8
0
10
68.256910
20
0.864212
11
68.257474
21
-5.547918
0
LINE
8
0
10
68.257474
20
-5.547918
11
70.524076
21
-5.032237
0
LINE
8
0
10
70.524076
20
-5.032237
11
72.621958
21
-4.155860
0
LINE
8
0
10
72.621958
20
-4.155860
11
74.517569
21
-2.954380
0
LINE
8
0
10
74.517569
20
-2.954380
11
76.177358
21
-1.463391
0
LINE
8
0
10
76.177358
20
-1.463391
11
77.567775
21
0.281513
0
LINE
8
0
10
77.567775
20
0.281513
11
78.655267
21
2.244739
0
LINE
8
0
10
78.655267
20
2.244739
11
79.406284
21
4.390694
0
LINE
8
0
10
79.406284
20
4.390694
11
79.787274
21
6.683782
0
LINE
8
0
10
79.787274
20
6.683782
11
79.787300
21
6.683750
0
LINE
8
0
10
193.718000
20
14.890500
11
193.732252
21
21.371430
0
LINE
8
0
10
193.732252
20
21.371430
11
191.491886
21
20.981992
0
LINE
8
0
10
191.491886
20
20.981992
11
189.394691
21
20.236798
0
LINE
8
0
10
189.394691
20
20.236798
11
187.474503
21
19.167648
0
LINE
8
0
10
187.474503
20
19.167648
11
185.765161
21
17.806343
0
LINE
8
0
10
185.765161
20
17.806343
11
184.300501
21
16.184685
0
LINE
8
0
10
184.300501
20
16.184685
11
183.114363
21
14.334474
0
LINE
8
0
10
183.114363
20
14.334474
11
182.240583
21
12.287512
0
LINE
8
0
10
182.240583
20
12.287512
11
181.713000
21
10.075600
0
LINE
8
0
10
181.713000
20
10.075600
11
188.113000
21
10.075600
0
LINE
8
0
10
188.113000
20
10.075600
11
188.114129
21
7.035600
0
LINE
8
0
10
188.114129
20
7.035600
11
181.607439
21
7.033342
0
LINE
8
0
10
181.607439
20
7.033342
11
182.012619
21
4.665138
0
LINE
8
0
10
182.012619
20
4.665138
11
182.813041
21
2.460133
0
LINE
8
0
10
182.813041
20
2.460133
11
183.970340
21
0.456870
0
LINE
8
0
10
183.970340
20
0.456870
11
185.446156
21
-1.306106
0
LINE
8
0
10
185.446156
20
-1.306106
11
187.202126
21
-2.790251
0
LINE
8
0
10
187.202126
20
-2.790251
11
189.199888
21
-3.957021
0
LINE
8
0
10
189.199888
20
-3.957021
11
191.401080
21
-4.767871
0
LINE
8
0
10
191.401080
20
-4.767871
11
193.767339
21
-5.184258
0
LINE
8
0
10
193.767339
20
-5.184258
11
193.767000
21
1.306430
0
LINE
8
0
10
193.767000
20
1.306430
11
196.807000
21
1.306712
0
LINE
8
0
10
196.807000
20
1.306712
11
196.807564
21
-5.093278
0
LINE
8
0
10
196.807564
20
-5.093278
11
199.034293
21
-4.572556
0
LINE
8
0
10
199.034293
20
-4.572556
11
201.095364
21
-3.701215
0
LINE
8
0
10
201.095364
20
-3.701215
11
202.958412
21
-2.513603
0
LINE
8
0
10
202.958412
20
-2.513603
11
204.591073
21
-1.044068
0
LINE
8
0
10
204.591073
20
-1.044068
11
205.960984
21
0.673040
0
LINE
8
0
10
205.960984
20
0.673040
11
207.035779
21
2.603373
0
LINE
8
0
10
207.035779
20
2.603373
11
207.783094
21
4.712584
0
LINE
8
0
10
207.783094
20
4.712584
11
208.170564
21
6.966322
0
LINE
8
0
10
208.170564
20
6.966322
11
201.681000
21
6.966290
0
LINE
8
0
10
201.681000
20
6.966290
11
201.681000
21
10.006300
0
LINE
8
0
10
201.681000
20
10.006300
11
208.081000
21
10.006300
0
LINE
8
0
10
208.081000
20
10.006300
11
207.591100
21
12.139423
0
LINE
8
0
10
207.591100
20
12.139423
11
206.777826
21
14.124820
0
LINE
8
0
10
206.777826
20
14.124820
11
205.670639
21
15.933132
0
LINE
8
0
10
205.670639
20
15.933132
11
204.299001
21
17.534998
0
LINE
8
0
10
204.299001
20
17.534998
11
202.692376
21
18.901058
0
LINE
8
0
10
202.692376
20
18.901058
11
200.880226
21
20.001952
0
LINE
8
0
10
200.880226
20
20.001952
11
198.892013
21
20.808319
0
LINE
8
0
10
198.892013
20
20.808319
11
196.757200
21
21.290800
0
LINE
8
0
10
196.757200
20
21.290800
11
196.757764
21
14.890800
0
LINE
8
0
10
196.757764
20
14.890800
11
193.718000
21
14.890500
0
LINE
8
0
10
208.258000
20
7.046260
11
201.761000
21
7.046260
0
LINE
8
0
10
201.761000
20
7.046260
11
201.761000
21
9.926260
0
LINE
8
0
10
201.761000
20
9.926260
11
208.173000
21
9.926260
0
LINE
8
0
10
208.173000
20
9.926260
11
207.687682
21
12.099048
0
LINE
8
0
10
207.687682
20
12.099048
11
206.869256
21
14.121184
0
LINE
8
0
10
206.869256
20
14.121184
11
205.748324
21
15.962173
0
LINE
8
0
10
205.748324
20
15.962173
11
204.355486
21
17.591519
0
LINE
8
0
10
204.355486
20
17.591519
11
202.721344
21
18.978726
0
LINE
8
0
10
202.721344
20
18.978726
11
200.876498
21
20.093299
0
LINE
8
0
10
200.876498
20
20.093299
11
198.851550
21
20.904742
0
LINE
8
0
10
198.851550
20
20.904742
11
196.677100
21
21.382560
0
LINE
8
0
10
196.677100
20
21.382560
11
196.677664
21
14.970770
0
LINE
8
0
10
196.677664
20
14.970770
11
193.797854
21
14.970488
0
LINE
8
0
10
193.797854
20
14.970488
11
193.812135
21
21.458438
0
LINE
8
0
10
193.812135
20
21.458438
11
191.532410
21
21.075379
0
LINE
8
0
10
191.532410
20
21.075379
11
189.398462
21
20.326428
0
LINE
8
0
10
189.398462
20
20.326428
11
187.445365
21
19.244559
0
LINE
8
0
10
187.445365
20
19.244559
11
185.708193
21
17.862750
0
LINE
8
0
10
185.708193
20
17.862750
11
184.222020
21
16.213976
0
LINE
8
0
10
184.222020
20
16.213976
11
183.021920
21
14.331216
0
LINE
8
0
10
183.021920
20
14.331216
11
182.142967
21
12.247444
0
LINE
8
0
10
182.142967
20
12.247444
11
181.620235
21
9.995638
0
LINE
8
0
10
181.620235
20
9.995638
11
188.033000
21
9.995650
0
LINE
8
0
10
188.033000
20
9.995650
11
188.034129
21
7.115620
0
LINE
8
0
10
188.034129
20
7.115620
11
181.521099
21
7.113362
0
LINE
8
0
10
181.521099
20
7.113362
11
181.919153
21
4.705658
0
LINE
8
0
10
181.919153
20
4.705658
11
182.723039
21
2.463858
0
LINE
8
0
10
182.723039
20
2.463858
11
183.893086
21
0.427821
0
LINE
8
0
10
183.893086
20
0.427821
11
185.389625
21
-1.362596
0
LINE
8
0
10
185.389625
20
-1.362596
11
187.172986
21
-2.867538
0
LINE
8
0
10
187.172986
20
-2.867538
11
189.203499
21
-4.047147
0
LINE
8
0
10
189.203499
20
-4.047147
11
191.441493
21
-4.861566
0
LINE
8
0
10
191.441493
20
-4.861566
11
193.847299
21
-5.270938
0
LINE
8
0
10
193.847299
20
-5.270938
11
193.847000
21
1.226450
0
LINE
8
0
10
193.847000
20
1.226450
11
196.727010
21
1.226718
0
LINE
8
0
10
196.727010
20
1.226718
11
196.727574
21
-5.185412
0
LINE
8
0
10
196.727574
20
-5.185412
11
198.994176
21
-4.669731
0
LINE
8
0
10
198.994176
20
-4.669731
11
201.092058
21
-3.793354
0
LINE
8
0
10
201.092058
20
-3.793354
11
202.987669
21
-2.591874
0
LINE
8
0
10
202.987669
20
-2.591874
11
204.647458
21
-1.100885
0
LINE
8
0
10
204.647458
20
-1.100885
11
206.037875
21
0.644019
0
LINE
8
0
10
206.037875
20
0.644019
11
207.125367
21
2.607245
0
LINE
8
0
10
207.125367
20
2.607245
11
207.876384
21
4.753200
0
LINE
8
0
10
207.876384
20
4.753200
11
208.257374
21
7.046288
0
LINE
8
0
10
208.257374
20
7.046288
11
208.258000
21
7.046260
 0 
ENDSEC
 0 
EOF